  0
SECTION
  2
HEADER
  9
$ACADVER
  1
AC1015
  9
$ACADMAINTVER
 70
     6
  9
$DWGCODEPAGE
  3
ANSI_1254
  9
$INSBASE
 10
0.0
 20
0.0
 30
0.0
  9
$EXTMIN
 10
0.0
 20
0.0
 30
0.0
  9
$EXTMAX
 10
279.4
 20
215.9
 30
0.0
  9
$LIMMIN
 10
0.0
 20
0.0
  9
$LIMMAX
 10
279.4
 20
215.9
  9
$ORTHOMODE
 70
     0
  9
$REGENMODE
 70
     1
  9
$FILLMODE
 70
     1
  9
$QTEXTMODE
 70
     0
  9
$MIRRTEXT
 70
     1
  9
$LTSCALE
 40
1.0
  9
$ATTMODE
 70
     1
  9
$TEXTSIZE
 40
3.5
  9
$TRACEWID
 40
1.0
  9
$TEXTSTYLE
  7
Standard
  9
$CLAYER
  8
0
  9
$CELTYPE
  6
ByLayer
  9
$CECOLOR
 62
   256
  9
$CELTSCALE
 40
1.0
  9
$DISPSILH
 70
     0
  9
$DIMSCALE
 40
1.0
  9
$DIMASZ
 40
3.5
  9
$DIMEXO
 40
1.0
  9
$DIMDLI
 40
3.75
  9
$DIMRND
 40
0.0
  9
$DIMDLE
 40
0.0
  9
$DIMEXE
 40
1.0
  9
$DIMTP
 40
0.0
  9
$DIMTM
 40
0.0
  9
$DIMTXT
 40
3.5
  9
$DIMCEN
 40
2.5
  9
$DIMTSZ
 40
0.0
  9
$DIMTOL
 70
     0
  9
$DIMLIM
 70
     0
  9
$DIMTIH
 70
     1
  9
$DIMTOH
 70
     1
  9
$DIMSE1
 70
     0
  9
$DIMSE2
 70
     0
  9
$DIMTAD
 70
     1
  9
$DIMZIN
 70
     0
  9
$DIMBLK
  1

  9
$DIMASO
 70
     1
  9
$DIMSHO
 70
     1
  9
$DIMPOST
  1

  9
$DIMAPOST
  1

  9
$DIMALT
 70
     0
  9
$DIMALTD
 70
     3
  9
$DIMALTF
 40
0.0393700787
  9
$DIMLFAC
 40
1.0
  9
$DIMTOFL
 70
     1
  9
$DIMTVP
 40
0.0
  9
$DIMTIX
 70
     0
  9
$DIMSOXD
 70
     0
  9
$DIMSAH
 70
     0
  9
$DIMBLK1
  1

  9
$DIMBLK2
  1

  9
$DIMSTYLE
  2
ISO-25
  9
$DIMCLRD
 70
     0
  9
$DIMCLRE
 70
     0
  9
$DIMCLRT
 70
     0
  9
$DIMTFAC
 40
1.0
  9
$DIMGAP
 40
1.524
  9
$DIMJUST
 70
     0
  9
$DIMSD1
 70
     0
  9
$DIMSD2
 70
     0
  9
$DIMTOLJ
 70
     0
  9
$DIMTZIN
 70
     0
  9
$DIMALTZ
 70
     0
  9
$DIMALTTZ
 70
     0
  9
$DIMUPT
 70
     0
  9
$DIMDEC
 70
     2
  9
$DIMTDEC
 70
     2
  9
$DIMALTU
 70
     2
  9
$DIMALTTD
 70
     3
  9
$DIMTXSTY
  7
Standard
  9
$DIMAUNIT
 70
     0
  9
$DIMADEC
 70
     2
  9
$DIMALTRND
 40
0.0
  9
$DIMAZIN
 70
     0
  9
$DIMDSEP
 70
    44
  9
$DIMATFIT
 70
     3
  9
$DIMFRAC
 70
     0
  9
$DIMLDRBLK
  1

  9
$DIMLUNIT
 70
     2
  9
$DIMLWD
 70
    -2
  9
$DIMLWE
 70
    -2
  9
$DIMTMOVE
 70
     0
  9
$LUNITS
 70
     2
  9
$LUPREC
 70
     2
  9
$SKETCHINC
 40
1.0
  9
$FILLETRAD
 40
10.0
  9
$AUNITS
 70
     0
  9
$AUPREC
 70
     2
  9
$MENU
  1
.
  9
$ELEVATION
 40
0.0
  9
$PELEVATION
 40
0.0
  9
$THICKNESS
 40
0.0
  9
$LIMCHECK
 70
     0
  9
$CHAMFERA
 40
0.0
  9
$CHAMFERB
 40
0.0
  9
$CHAMFERC
 40
0.0
  9
$CHAMFERD
 40
0.0
  9
$SKPOLY
 70
     0
  9
$TDCREATE
 40
2459741.609666192
  9
$TDUCREATE
 40
2459741.484666192
  9
$TDUPDATE
 40
2459741.609666377
  9
$TDUUPDATE
 40
2459741.484666377
  9
$TDINDWG
 40
0.0000000116
  9
$TDUSRTIMER
 40
0.0000000116
  9
$USRTIMER
 70
     1
  9
$ANGBASE
 50
0.0
  9
$ANGDIR
 70
     0
  9
$PDMODE
 70
     0
  9
$PDSIZE
 40
-1.0
  9
$PLINEWID
 40
0.0
  9
$SPLFRAME
 70
     0
  9
$SPLINETYPE
 70
     6
  9
$SPLINESEGS
 70
     8
  9
$HANDSEED
  5
127
  9
$SURFTAB1
 70
     6
  9
$SURFTAB2
 70
     6
  9
$SURFTYPE
 70
     6
  9
$SURFU
 70
     6
  9
$SURFV
 70
     6
  9
$UCSBASE
  2

  9
$UCSNAME
  2

  9
$UCSORG
 10
0.0
 20
0.0
 30
0.0
  9
$UCSXDIR
 10
1.0
 20
0.0
 30
0.0
  9
$UCSYDIR
 10
0.0
 20
1.0
 30
0.0
  9
$UCSORTHOREF
  2

  9
$UCSORTHOVIEW
 70
     0
  9
$UCSORGTOP
 10
0.0
 20
0.0
 30
0.0
  9
$UCSORGBOTTOM
 10
0.0
 20
0.0
 30
0.0
  9
$UCSORGLEFT
 10
0.0
 20
0.0
 30
0.0
  9
$UCSORGRIGHT
 10
0.0
 20
0.0
 30
0.0
  9
$UCSORGFRONT
 10
0.0
 20
0.0
 30
0.0
  9
$UCSORGBACK
 10
0.0
 20
0.0
 30
0.0
  9
$PUCSBASE
  2

  9
$PUCSNAME
  2

  9
$PUCSORG
 10
0.0
 20
0.0
 30
0.0
  9
$PUCSXDIR
 10
1.0
 20
0.0
 30
0.0
  9
$PUCSYDIR
 10
0.0
 20
1.0
 30
0.0
  9
$PUCSORTHOREF
  2

  9
$PUCSORTHOVIEW
 70
     0
  9
$PUCSORGTOP
 10
0.0
 20
0.0
 30
0.0
  9
$PUCSORGBOTTOM
 10
0.0
 20
0.0
 30
0.0
  9
$PUCSORGLEFT
 10
0.0
 20
0.0
 30
0.0
  9
$PUCSORGRIGHT
 10
0.0
 20
0.0
 30
0.0
  9
$PUCSORGFRONT
 10
0.0
 20
0.0
 30
0.0
  9
$PUCSORGBACK
 10
0.0
 20
0.0
 30
0.0
  9
$USERI1
 70
     0
  9
$USERI2
 70
     0
  9
$USERI3
 70
     0
  9
$USERI4
 70
     0
  9
$USERI5
 70
     0
  9
$USERR1
 40
0.0
  9
$USERR2
 40
0.0
  9
$USERR3
 40
0.0
  9
$USERR4
 40
0.0
  9
$USERR5
 40
0.0
  9
$WORLDVIEW
 70
     1
  9
$SHADEDGE
 70
     3
  9
$SHADEDIF
 70
    70
  9
$TILEMODE
 70
     1
  9
$MAXACTVP
 70
    64
  9
$PINSBASE
 10
0.0
 20
0.0
 30
0.0
  9
$PLIMCHECK
 70
     0
  9
$PEXTMIN
 10
1.0000000000E+20
 20
1.0000000000E+20
 30
1.0000000000E+20
  9
$PEXTMAX
 10
-1.0000000000E+20
 20
-1.0000000000E+20
 30
-1.0000000000E+20
  9
$PLIMMIN
 10
0.0
 20
0.0
  9
$PLIMMAX
 10
420.0
 20
297.0
  9
$UNITMODE
 70
     0
  9
$VISRETAIN
 70
     1
  9
$PLINEGEN
 70
     0
  9
$PSLTSCALE
 70
     1
  9
$TREEDEPTH
 70
  3020
  9
$CMLSTYLE
  2
Standard
  9
$CMLJUST
 70
     0
  9
$CMLSCALE
 40
20.0
  9
$PROXYGRAPHICS
 70
     1
  9
$MEASUREMENT
 70
     1
  9
$CELWEIGHT
370
    -1
  9
$ENDCAPS
280
     0
  9
$JOINSTYLE
280
     0
  9
$LWDISPLAY
290
     1
  9
$INSUNITS
 70
     4
  9
$HYPERLINKBASE
  1

  9
$STYLESHEET
  1

  9
$XEDIT
290
     1
  9
$CEPSNTYPE
380
     0
  9
$PSTYLEMODE
290
     1
  9
$FINGERPRINTGUID
  2
{77721aee-df29-4d57-9a63-e6059d354d34}
  9
$VERSIONGUID
  2
{FAEB1C32-E019-11D5-929B-00C0DF256EC4}
  9
$EXTNAMES
290
     1
  9
$PSVPSCALE
 40
0.0
  9
$OLESTARTUP
290
     0
  0
ENDSEC
  0
SECTION
  2
CLASSES
  0
CLASS
  1
ACDBDICTIONARYWDFLT
  2
AcDbDictionaryWithDefault
  3
ObjectDBX Classes
 90
        0
280
     0
281
     0
  0
CLASS
  1
VISUALSTYLE
  2
AcDbVisualStyle
  3
ObjectDBX Classes
 90
     4095
280
     0
281
     0
  0
CLASS
  1
MATERIAL
  2
AcDbMaterial
  3
ObjectDBX Classes
 90
     1153
280
     0
281
     0
  0
CLASS
  1
SCALE
  2
AcDbScale
  3
ObjectDBX Classes
 90
     1153
280
     0
281
     0
  0
CLASS
  1
TABLESTYLE
  2
AcDbTableStyle
  3
ObjectDBX Classes
 90
     4095
280
     0
281
     0
  0
CLASS
  1
MLEADERSTYLE
  2
AcDbMLeaderStyle
  3
ACDB_MLEADERSTYLE_CLASS
 90
     4095
280
     0
281
     0
  0
CLASS
  1
SUN
  2
AcDbSun
  3
SCENEOE
 90
     1153
280
     0
281
     0
  0
CLASS
  1
ACDBPLACEHOLDER
  2
AcDbPlaceHolder
  3
ObjectDBX Classes
 90
        0
280
     0
281
     0
  0
CLASS
  1
LAYOUT
  2
AcDbLayout
  3
ObjectDBX Classes
 90
        0
280
     0
281
     0
  0
ENDSEC
  0
SECTION
  2
TABLES
  0
TABLE
  2
VPORT
  5
8
330
0
100
AcDbSymbolTable
 70
     1
  0
VPORT
  5
29
330
8
100
AcDbSymbolTableRecord
100
AcDbViewportTableRecord
  2
*Active
 70
     0
 10
0.0
 20
0.0
 11
1.0
 21
1.0
 12
139.7
 22
107.95
 13
0.0
 23
0.0
 14
10.0
 24
10.0
 15
10.0
 25
10.0
 16
0.0
 26
0.0
 36
1.0
 17
0.0
 27
0.0
 37
0.0
 40
215.9
 41
1.2941176471
 42
50.0
 43
0.0
 44
0.0
 50
0.0
 51
0.0
 71
     0
 72
  2000
 73
     1
 74
     3
 75
     0
 76
     0
 77
     0
 78
     0
281
     0
 65
     1
110
0.0
120
0.0
130
0.0
111
1.0
121
0.0
131
0.0
112
0.0
122
1.0
132
0.0
 79
     0
146
0.0
  0
ENDTAB
  0
TABLE
  2
LTYPE
  5
5
330
0
100
AcDbSymbolTable
 70
     6
  0
LTYPE
  5
14
330
5
100
AcDbSymbolTableRecord
100
AcDbLinetypeTableRecord
  2
ByBlock
 70
     0
  3

 72
    65
 73
     0
 40
0.0
  0
LTYPE
  5
15
330
5
100
AcDbSymbolTableRecord
100
AcDbLinetypeTableRecord
  2
ByLayer
 70
     0
  3

 72
    65
 73
     0
 40
0.0
  0
LTYPE
  5
16
330
5
100
AcDbSymbolTableRecord
100
AcDbLinetypeTableRecord
  2
Continuous
 70
     0
  3
Solid line
 72
    65
 73
     0
 40
0.0
  0
LTYPE
  5
6E
330
5
100
AcDbSymbolTableRecord
100
AcDbLinetypeTableRecord
  2
HIDDEN
 70
     0
  3
Hidden __ __ __ __ __ __ __ __ __ __ __ __ __ __
 72
    65
 73
     2
 40
1.905
 49
1.27
 74
     0
 49
-0.635
 74
     0
  0
LTYPE
  5
6F
330
5
100
AcDbSymbolTableRecord
100
AcDbLinetypeTableRecord
  2
PHANTOM
 70
     0
  3
Phantom ______  __  __  ______  __  __  ______
 72
    65
 73
     6
 40
12.7
 49
6.35
 74
     0
 49
-1.27
 74
     0
 49
1.27
 74
     0
 49
-1.27
 74
     0
 49
1.27
 74
     0
 49
-1.27
 74
     0
  0
LTYPE
  5
70
330
5
100
AcDbSymbolTableRecord
100
AcDbLinetypeTableRecord
  2
CENTER
 70
     0
  3
Center ____ _ ____ _ ____ _ ____ _ ____ _ ____
 72
    65
 73
     4
 40
10.16
 49
6.35
 74
     0
 49
-1.27
 74
     0
 49
1.27
 74
     0
 49
-1.27
 74
     0
  0
LTYPE
  5
71
330
5
100
AcDbSymbolTableRecord
100
AcDbLinetypeTableRecord
  2
CENTERX2
 70
     0
  3
Center (2x) ________  __  ________  __  _____
 72
    65
 73
     4
 40
20.32
 49
12.7
 74
     0
 49
-2.54
 74
     0
 49
2.54
 74
     0
 49
-2.54
 74
     0
  0
LTYPE
  5
72
330
5
100
AcDbSymbolTableRecord
100
AcDbLinetypeTableRecord
  2
DOT2
 70
     0
  3
Dot (.5x) ........................................
 72
    65
 73
     2
 40
0.635
 49
0.0
 74
     0
 49
-0.635
 74
     0
  0
ENDTAB
  0
TABLE
  2
LAYER
  5
2
330
0
100
AcDbSymbolTable
 70
    17
  0
LAYER
  5
10
330
2
100
AcDbSymbolTableRecord
100
AcDbLayerTableRecord
  2
0
 70
     0
 62
     7
  6
Continuous
370
    -3
390
F
  0
LAYER
  5
73
330
2
100
AcDbSymbolTableRecord
100
AcDbLayerTableRecord
  2
FORMAT
 70
     0
 62
     7
  6
Continuous
370
    -3
390
F
  0
LAYER
  5
74
330
2
100
AcDbSymbolTableRecord
100
AcDbLayerTableRecord
  2
YARDIMCI_GEOMETRI
 70
     0
 62
    -6
  6
Continuous
290
     0
370
    -3
390
F
  0
LAYER
  5
75
330
2
100
AcDbSymbolTableRecord
100
AcDbLayerTableRecord
  2
SAYFA_CERCEVESI
 70
     0
 62
     7
  6
Continuous
370
    25
390
F
  0
LAYER
  5
76
330
2
100
AcDbSymbolTableRecord
100
AcDbLayerTableRecord
  2
ANTET
 70
     0
 62
     7
  6
Continuous
370
    -3
390
F
  0
LAYER
  5
77
330
2
100
AcDbSymbolTableRecord
100
AcDbLayerTableRecord
  2
OLCU
 70
     0
 62
   150
  6
Continuous
370
    -3
390
F
  0
LAYER
  5
78
330
2
100
AcDbSymbolTableRecord
100
AcDbLayerTableRecord
  2
METIN
 70
     0
 62
    96
  6
Continuous
370
    -3
390
F
  0
LAYER
  5
79
330
2
100
AcDbSymbolTableRecord
100
AcDbLayerTableRecord
  2
BALON
 70
     0
 62
     5
  6
Continuous
370
    -3
390
F
  0
LAYER
  5
7A
330
2
100
AcDbSymbolTableRecord
100
AcDbLayerTableRecord
  2
VURGU
 70
     0
 62
     7
  6
Continuous
370
    -3
390
F
  0
LAYER
  5
7B
330
2
100
AcDbSymbolTableRecord
100
AcDbLayerTableRecord
  2
SILIK
 70
     0
 62
     7
  6
Continuous
370
    -3
390
F
  0
LAYER
  5
7C
330
2
100
AcDbSymbolTableRecord
100
AcDbLayerTableRecord
  2
MODEL
 70
     0
 62
     7
  6
Continuous
370
    -3
390
F
  0
LAYER
  5
7D
330
2
100
AcDbSymbolTableRecord
100
AcDbLayerTableRecord
  2
DETAYLANDıRMA
 70
     0
 62
   190
  6
Continuous
370
    -3
390
F
  0
LAYER
  5
7E
330
2
100
AcDbSymbolTableRecord
100
AcDbLayerTableRecord
  2
TOLERANS
 70
     0
 62
   230
  6
Continuous
370
    -3
390
F
  0
LAYER
  5
7F
330
2
100
AcDbSymbolTableRecord
100
AcDbLayerTableRecord
  2
MERKEZ_CIZGILERI
 70
     0
 62
    30
  6
Continuous
370
    -3
390
F
  0
LAYER
  5
80
330
2
100
AcDbSymbolTableRecord
100
AcDbLayerTableRecord
  2
KESIT-DETAY_CIZGILERI
 70
     0
 62
     7
  6
Continuous
370
    -3
390
F
  0
LAYER
  5
81
330
2
100
AcDbSymbolTableRecord
100
AcDbLayerTableRecord
  2
\U+041E\U+0421\U+0415\U+0412\U+042B\U+0415
 70
     0
 62
     7
  6
Continuous
370
    -3
390
F
  0
LAYER
  5
82
330
2
100
AcDbSymbolTableRecord
100
AcDbLayerTableRecord
  2
\U+0412\U+041E\U+0414\U+042F\U+041D\U+042B\U+0415_\U+0417\U+041D\U+0410\U+041A\U+0418
 70
     0
 62
    11
  6
Continuous
370
    -3
390
F
  0
ENDTAB
  0
TABLE
  2
STYLE
  5
3
330
0
100
AcDbSymbolTable
 70
     1
  0
STYLE
  5
11
330
3
100
AcDbSymbolTableRecord
100
AcDbTextStyleTableRecord
  2
Standard
 70
     0
 40
0.0
 41
1.0
 50
0.0
 71
     0
 42
3.5
  3
txt
  4

  0
ENDTAB
  0
TABLE
  2
VIEW
  5
6
330
0
100
AcDbSymbolTable
 70
     0
  0
ENDTAB
  0
TABLE
  2
UCS
  5
7
330
0
100
AcDbSymbolTable
 70
     0
  0
ENDTAB
  0
TABLE
  2
APPID
  5
9
330
0
100
AcDbSymbolTable
 70
     1
  0
APPID
  5
12
330
9
100
AcDbSymbolTableRecord
100
AcDbRegAppTableRecord
  2
ACAD
 70
     0
  0
ENDTAB
  0
TABLE
  2
DIMSTYLE
  5
A
330
0
100
AcDbSymbolTable
 70
     1
100
AcDbDimStyleTable
  0
DIMSTYLE
105
27
330
A
100
AcDbSymbolTableRecord
100
AcDbDimStyleTableRecord
  2
ISO-25
 70
     0
 41
2.5
 42
0.625
 43
3.75
 44
1.25
 73
     0
 74
     0
 77
     1
 78
     8
140
2.5
141
2.5
143
0.0393700787
147
0.625
171
     3
172
     1
178
     0
271
     2
272
     2
274
     3
278
    44
283
     0
284
     8
340
11
  0
ENDTAB
  0
TABLE
  2
BLOCK_RECORD
  5
1
330
0
100
AcDbSymbolTable
 70
     4
  0
BLOCK_RECORD
  5
1F
330
1
100
AcDbSymbolTableRecord
100
AcDbBlockTableRecord
  2
*Model_Space
340
22
  0
BLOCK_RECORD
  5
1B
330
1
100
AcDbSymbolTableRecord
100
AcDbBlockTableRecord
  2
*Paper_Space
340
1E
  0
BLOCK_RECORD
  5
23
330
1
100
AcDbSymbolTableRecord
100
AcDbBlockTableRecord
  2
*Paper_Space0
340
26
  0
BLOCK_RECORD
  5
8E
330
1
100
AcDbSymbolTableRecord
100
AcDbBlockTableRecord
  2
SW_CENTERMARKSYMBOL_0
340
0
102
{BLKREFS
331
99
102
}
  0
BLOCK_RECORD
  5
C8
330
1
100
AcDbSymbolTableRecord
100
AcDbBlockTableRecord
  2
SW_CENTERMARKSYMBOL_1
340
0
102
{BLKREFS
331
D3
102
}
  0
BLOCK_RECORD
  5
D4
330
1
100
AcDbSymbolTableRecord
100
AcDbBlockTableRecord
  2
SW_CENTERMARKSYMBOL_2
340
0
102
{BLKREFS
331
DF
102
}
  0
ENDTAB
  0
ENDSEC
  0
SECTION
  2
BLOCKS
  0
BLOCK
  5
20
330
1F
100
AcDbEntity
  8
0
100
AcDbBlockBegin
  2
*Model_Space
 70
     0
 10
0.0
 20
0.0
 30
0.0
  3
*Model_Space
  1

  0
ENDBLK
  5
21
330
1F
100
AcDbEntity
  8
0
100
AcDbBlockEnd
  0
BLOCK
  5
1C
330
1B
100
AcDbEntity
 67
     1
  8
0
100
AcDbBlockBegin
  2
*Paper_Space
 70
     0
 10
0.0
 20
0.0
 30
0.0
  3
*Paper_Space
  1

  0
ENDBLK
  5
1D
330
1B
100
AcDbEntity
 67
     1
  8
0
100
AcDbBlockEnd
  0
BLOCK
  5
24
330
23
100
AcDbEntity
  8
0
100
AcDbBlockBegin
  2
*Paper_Space0
 70
     0
 10
0.0
 20
0.0
 30
0.0
  3
*Paper_Space0
  1

  0
ENDBLK
  5
25
330
23
100
AcDbEntity
  8
0
100
AcDbBlockEnd
  0
BLOCK
  5
8F
330
8E
100
AcDbEntity
  8
0
100
AcDbBlockBegin
  2
SW_CENTERMARKSYMBOL_0
 70
     0
 10
0.0
 20
0.0
 30
0.0
  3
SW_CENTERMARKSYMBOL_0
  1

  0
LINE
  5
91
330
8E
100
AcDbEntity
  8
FORMAT
 62
     0
100
AcDbLine
 10
0.0
 20
0.0
 30
0.0
 11
0.0
 21
2.5
 31
0.0
  0
LINE
  5
92
330
8E
100
AcDbEntity
  8
FORMAT
 62
     0
100
AcDbLine
 10
0.0
 20
0.0
 30
0.0
 11
-2.5
 21
0.0
 31
0.0
  0
LINE
  5
93
330
8E
100
AcDbEntity
  8
FORMAT
 62
     0
100
AcDbLine
 10
0.0
 20
0.0
 30
0.0
 11
0.0
 21
-2.5
 31
0.0
  0
LINE
  5
94
330
8E
100
AcDbEntity
  8
FORMAT
 62
     0
100
AcDbLine
 10
0.0
 20
0.0
 30
0.0
 11
2.5
 21
0.0
 31
0.0
  0
LINE
  5
95
330
8E
100
AcDbEntity
  8
FORMAT
 62
     0
100
AcDbLine
 10
0.0
 20
5.0
 30
0.0
 11
0.0
 21
24.0
 31
0.0
  0
LINE
  5
96
330
8E
100
AcDbEntity
  8
FORMAT
 62
     0
100
AcDbLine
 10
-5.0
 20
0.0
 30
0.0
 11
-24.0
 21
0.0
 31
0.0
  0
LINE
  5
97
330
8E
100
AcDbEntity
  8
FORMAT
 62
     0
100
AcDbLine
 10
0.0
 20
-5.0
 30
0.0
 11
0.0
 21
-24.0
 31
0.0
  0
LINE
  5
98
330
8E
100
AcDbEntity
  8
FORMAT
 62
     0
100
AcDbLine
 10
5.0
 20
0.0
 30
0.0
 11
24.0
 21
0.0
 31
0.0
  0
ENDBLK
  5
90
330
8E
100
AcDbEntity
  8
0
100
AcDbBlockEnd
  0
BLOCK
  5
C9
330
C8
100
AcDbEntity
  8
0
100
AcDbBlockBegin
  2
SW_CENTERMARKSYMBOL_1
 70
     0
 10
0.0
 20
0.0
 30
0.0
  3
SW_CENTERMARKSYMBOL_1
  1

  0
LINE
  5
CB
330
C8
100
AcDbEntity
  8
FORMAT
 62
     0
100
AcDbLine
 10
0.0
 20
0.0
 30
0.0
 11
0.0
 21
2.5
 31
0.0
  0
LINE
  5
CC
330
C8
100
AcDbEntity
  8
FORMAT
 62
     0
100
AcDbLine
 10
0.0
 20
0.0
 30
0.0
 11
-2.5
 21
0.0
 31
0.0
  0
LINE
  5
CD
330
C8
100
AcDbEntity
  8
FORMAT
 62
     0
100
AcDbLine
 10
0.0
 20
0.0
 30
0.0
 11
0.0
 21
-2.5
 31
0.0
  0
LINE
  5
CE
330
C8
100
AcDbEntity
  8
FORMAT
 62
     0
100
AcDbLine
 10
0.0
 20
0.0
 30
0.0
 11
2.5
 21
0.0
 31
0.0
  0
LINE
  5
CF
330
C8
100
AcDbEntity
  8
FORMAT
 62
     0
100
AcDbLine
 10
0.0
 20
5.0
 30
0.0
 11
0.0
 21
9.5
 31
0.0
  0
LINE
  5
D0
330
C8
100
AcDbEntity
  8
FORMAT
 62
     0
100
AcDbLine
 10
-5.0
 20
0.0
 30
0.0
 11
-9.5
 21
0.0
 31
0.0
  0
LINE
  5
D1
330
C8
100
AcDbEntity
  8
FORMAT
 62
     0
100
AcDbLine
 10
0.0
 20
-5.0
 30
0.0
 11
0.0
 21
-9.5
 31
0.0
  0
LINE
  5
D2
330
C8
100
AcDbEntity
  8
FORMAT
 62
     0
100
AcDbLine
 10
5.0
 20
0.0
 30
0.0
 11
9.5
 21
0.0
 31
0.0
  0
ENDBLK
  5
CA
330
C8
100
AcDbEntity
  8
0
100
AcDbBlockEnd
  0
BLOCK
  5
D5
330
D4
100
AcDbEntity
  8
0
100
AcDbBlockBegin
  2
SW_CENTERMARKSYMBOL_2
 70
     0
 10
0.0
 20
0.0
 30
0.0
  3
SW_CENTERMARKSYMBOL_2
  1

  0
LINE
  5
D7
330
D4
100
AcDbEntity
  8
FORMAT
 62
     0
100
AcDbLine
 10
0.0
 20
0.0
 30
0.0
 11
0.0
 21
2.5
 31
0.0
  0
LINE
  5
D8
330
D4
100
AcDbEntity
  8
FORMAT
 62
     0
100
AcDbLine
 10
0.0
 20
0.0
 30
0.0
 11
-2.5
 21
0.0
 31
0.0
  0
LINE
  5
D9
330
D4
100
AcDbEntity
  8
FORMAT
 62
     0
100
AcDbLine
 10
0.0
 20
0.0
 30
0.0
 11
0.0
 21
-2.5
 31
0.0
  0
LINE
  5
DA
330
D4
100
AcDbEntity
  8
FORMAT
 62
     0
100
AcDbLine
 10
0.0
 20
0.0
 30
0.0
 11
2.5
 21
0.0
 31
0.0
  0
LINE
  5
DB
330
D4
100
AcDbEntity
  8
FORMAT
 62
     0
100
AcDbLine
 10
0.0
 20
5.0
 30
0.0
 11
0.0
 21
9.5
 31
0.0
  0
LINE
  5
DC
330
D4
100
AcDbEntity
  8
FORMAT
 62
     0
100
AcDbLine
 10
-5.0
 20
0.0
 30
0.0
 11
-9.5
 21
0.0
 31
0.0
  0
LINE
  5
DD
330
D4
100
AcDbEntity
  8
FORMAT
 62
     0
100
AcDbLine
 10
0.0
 20
-5.0
 30
0.0
 11
0.0
 21
-9.5
 31
0.0
  0
LINE
  5
DE
330
D4
100
AcDbEntity
  8
FORMAT
 62
     0
100
AcDbLine
 10
5.0
 20
0.0
 30
0.0
 11
9.5
 21
0.0
 31
0.0
  0
ENDBLK
  5
D6
330
D4
100
AcDbEntity
  8
0
100
AcDbBlockEnd
  0
ENDSEC
  0
SECTION
  2
ENTITIES
  0
LINE
  5
83
330
1F
100
AcDbEntity
  8
0
  6
Continuous
 62
     7
370
    25
100
AcDbLine
 10
129.1701403815
 20
97.3382215701
 30
0.0
 11
129.1701403815
 21
68.6754170122
 31
0.0
  0
LINE
  5
84
330
1F
100
AcDbEntity
  8
0
  6
Continuous
 62
     7
370
    25
100
AcDbLine
 10
143.1701403815
 20
68.6754170122
 30
0.0
 11
143.1701403815
 21
97.3388303697
 31
0.0
  0
LINE
  5
85
330
1F
100
AcDbEntity
  8
0
  6
Continuous
 62
     7
370
    25
100
AcDbLine
 10
129.1701403815
 20
97.346865662
 30
0.0
 11
129.1701403815
 21
97.3382215701
 31
0.0
  0
LINE
  5
86
330
1F
100
AcDbEntity
  8
0
  6
Continuous
 62
     7
370
    25
100
AcDbLine
 10
143.1701403815
 20
97.3388303697
 30
0.0
 11
143.1701403815
 21
97.346865662
 31
0.0
  0
CIRCLE
  5
87
330
1F
100
AcDbEntity
  8
0
  6
Continuous
 62
     7
370
    25
100
AcDbCircle
 10
136.1701403815
 20
117.6754170122
 30
0.0
 40
21.5
  0
CIRCLE
  5
88
330
1F
100
AcDbEntity
  8
0
  6
Continuous
 62
     7
370
    25
100
AcDbCircle
 10
136.1701403815
 20
117.6754170122
 30
0.0
 40
16.0
  0
LINE
  5
89
330
1F
100
AcDbEntity
  8
0
  6
Continuous
 62
     7
370
    25
100
AcDbLine
 10
136.1701403815
 20
68.6754170122
 30
0.0
 11
143.1701403815
 21
68.6754170122
 31
0.0
  0
LINE
  5
8A
330
1F
100
AcDbEntity
  8
0
  6
Continuous
 62
     7
370
    25
100
AcDbLine
 10
129.1701403815
 20
68.6754170122
 30
0.0
 11
136.1701403815
 21
68.6754170122
 31
0.0
  0
CIRCLE
  5
8B
330
1F
100
AcDbEntity
  8
0
  6
Continuous
 62
     7
370
    25
100
AcDbCircle
 10
136.1701403815
 20
117.6754170122
 30
0.0
 40
14.43386091563731
  0
CIRCLE
  5
8C
330
1F
100
AcDbEntity
  8
0
  6
Continuous
 62
     7
370
    25
100
AcDbCircle
 10
136.1701403815
 20
117.6754170122
 30
0.0
 40
14.06613908436269
  0
CIRCLE
  5
8D
330
1F
100
AcDbEntity
  8
0
  6
Continuous
 62
     7
370
    25
100
AcDbCircle
 10
136.1701403815
 20
117.6754170122
 30
0.0
 40
12.5
  0
INSERT
  5
99
330
1F
100
AcDbEntity
  8
FORMAT
 62
     7
100
AcDbBlockReference
  2
SW_CENTERMARKSYMBOL_0
 10
136.1701403815
 20
117.6754170122
 30
0.0
  0
ARC
  5
9A
330
1F
100
AcDbEntity
  8
0
  6
Continuous
 62
     7
370
    25
100
AcDbCircle
 10
52.6850094849
 20
137.1754170122
 30
0.0
 40
2.0
100
AcDbArc
 50
12.5288077092
 51
90.0
  0
ARC
  5
9B
330
1F
100
AcDbEntity
  8
0
  6
Continuous
 62
     7
370
    25
100
AcDbCircle
 10
52.6850094849
 20
98.1754170122
 30
0.0
 40
2.000000000000014
100
AcDbArc
 50
270.0
 51
347.4711922908
  0
LINE
  5
9C
330
1F
100
AcDbEntity
  8
0
  6
Continuous
 62
     7
370
    25
100
AcDbLine
 10
52.6850094849
 20
139.1754170122
 30
0.0
 11
15.2893526976
 21
139.1754170122
 31
0.0
  0
LINE
  5
9D
330
1F
100
AcDbEntity
  8
0
  6
Continuous
 62
     7
370
    25
100
AcDbLine
 10
30.2861570111
 20
96.1754170122
 30
0.0
 11
52.6850094849
 21
96.1754170122
 31
0.0
  0
LINE
  5
9E
330
1F
100
AcDbEntity
  8
0
  6
Continuous
 62
     7
370
    25
100
AcDbLine
 10
15.2893526976
 20
96.1754170122
 30
0.0
 11
16.2893526976
 21
96.1754170122
 31
0.0
  0
LINE
  5
9F
330
1F
100
AcDbEntity
  8
0
  6
Continuous
 62
     7
370
    25
100
AcDbLine
 10
54.6373836053
 20
97.7415560966
 30
0.0
 11
54.94132179
 21
99.1092779279
 31
0.0
  0
LINE
  5
A0
330
1F
100
AcDbEntity
  8
0
  6
Continuous
 62
     7
370
    25
100
AcDbLine
 10
54.94132179
 20
136.2415560966
 30
0.0
 11
54.6373836053
 21
137.6092779279
 31
0.0
  0
ARC
  5
A1
330
1F
100
AcDbEntity
  8
0
  6
Continuous
 62
     7
370
    25
100
AcDbCircle
 10
56.8936959104
 20
136.6754170122
 30
0.0
 40
2.0
100
AcDbArc
 50
192.5288077092
 51
270.0
  0
ARC
  5
A2
330
1F
100
AcDbEntity
  8
0
  6
Continuous
 62
     7
370
    25
100
AcDbCircle
 10
56.8936959104
 20
98.6754170122
 30
0.0
 40
2.0
100
AcDbArc
 50
90.0
 51
167.4711922908
  0
LINE
  5
A3
330
1F
100
AcDbEntity
  8
0
  6
Continuous
 62
     7
370
    25
100
AcDbLine
 10
92.2893526976
 20
134.6754170122
 30
0.0
 11
56.8936959104
 21
134.6754170122
 31
0.0
  0
LINE
  5
A4
330
1F
100
AcDbEntity
  8
0
  6
Continuous
 62
     7
370
    25
100
AcDbLine
 10
91.276403718
 20
100.6754170122
 30
0.0
 11
92.2893526976
 21
100.6754170122
 31
0.0
  0
LINE
  5
A5
330
1F
100
AcDbEntity
  8
0
  6
Continuous
 62
     7
370
    25
100
AcDbLine
 10
56.8936959104
 20
100.6754170122
 30
0.0
 11
77.2893526976
 21
100.6754170122
 31
0.0
  0
LINE
  5
A6
330
1F
100
AcDbEntity
  8
0
  6
Continuous
 62
     7
370
    25
100
AcDbLine
 10
77.2893526976
 20
100.6754170122
 30
0.0
 11
77.2893526976
 21
80.1754170122
 31
0.0
  0
LINE
  5
A7
330
1F
100
AcDbEntity
  8
0
  6
Continuous
 62
     7
370
    25
100
AcDbLine
 10
91.2893526976
 20
80.1754170122
 30
0.0
 11
91.2893526976
 21
100.6807159372
 31
0.0
  0
LINE
  5
A8
330
1F
100
AcDbEntity
  8
0
  6
Continuous
 62
     7
370
    25
100
AcDbLine
 10
16.2893526976
 20
96.1754170122
 30
0.0
 11
16.2893526976
 21
68.6754170122
 31
0.0
  0
LINE
  5
A9
330
1F
100
AcDbEntity
  8
0
  6
Continuous
 62
     7
370
    25
100
AcDbLine
 10
30.2893526976
 20
68.6754170122
 30
0.0
 11
30.2893526976
 21
96.1764466839
 31
0.0
  0
LINE
  5
AA
330
1F
100
AcDbEntity
  8
0
  6
Continuous
 62
     7
370
    25
100
AcDbLine
 10
15.2893526976
 20
139.1754170122
 30
0.0
 11
15.2893526976
 21
96.1754170122
 31
0.0
  0
SPLINE
  5
AB
330
1F
100
AcDbEntity
  8
0
  6
Continuous
 62
     7
370
    25
100
AcDbSpline
210
0.0
220
0.0
230
1.0
 70
     8
 71
     3
 72
    27
 73
    23
 74
     0
 42
0.00000001
 43
0.00000001
 40
0.0
 40
0.0
 40
0.0
 40
0.0
 40
0.001844735760632
 40
0.0548609074063399
 40
0.1049632623028935
 40
0.1564516984968714
 40
0.207873129024944
 40
0.2606663066879787
 40
0.3142555819822125
 40
0.3694020653156415
 40
0.4227520639524996
 40
0.4778080799906388
 40
0.5285754964784427
 40
0.5808715898003821
 40
0.6308474705806063
 40
0.682163047178075
 40
0.7342441765850884
 40
0.7877302674261856
 40
0.8416273560728806
 40
0.8971517941977363
 40
0.9478367197796155
 40
1.0
 40
1.0
 40
1.0
 40
1.0
 10
30.28615701106312
 20
96.17645195577317
 30
0.0
 10
30.28721700229524
 20
96.17610868878215
 30
0.0
 10
30.31874026003088
 20
96.16590021393576
 30
0.0
 10
30.20543302543426
 20
96.20285026559885
 30
0.0
 10
29.9365606272468
 20
96.2885376961601
 30
0.0
 10
29.48094130444584
 20
96.42693448944733
 30
0.0
 10
28.86341777737591
 20
96.6000214704372
 30
0.0
 10
28.08897722822251
 20
96.79340300275628
 30
0.0
 10
27.16291902574497
 20
96.98878652247798
 30
0.0
 10
26.11893118339017
 20
97.16047356377257
 30
0.0
 10
24.97833403253017
 20
97.28787438236137
 30
0.0
 10
23.81435270967035
 20
97.35140938340324
 30
0.0
 10
22.64312890387885
 20
97.3472727398587
 30
0.0
 10
21.52795007677108
 20
97.2804458556844
 30
0.0
 10
20.45987083195512
 20
97.15923396034582
 30
0.0
 10
19.4697328829096
 20
96.99820954765818
 30
0.0
 10
18.56062664583692
 20
96.80967512846172
 30
0.0
 10
17.76584186208489
 20
96.61373117157898
 30
0.0
 10
17.1075979727174
 20
96.43006725740364
 30
0.0
 10
16.63846511089765
 20
96.28751176798208
 30
0.0
 10
16.34397447567398
 20
96.19331139067214
 30
0.0
 10
16.30773360080931
 20
96.1814386916668
 30
0.0
 10
16.28935269764963
 20
96.1754170122378
 30
0.0
  0
ARC
  5
AC
330
1F
100
AcDbEntity
  8
0
  6
Continuous
 62
     7
370
    25
100
AcDbCircle
 10
84.2890097203
 20
84.5372718083
 30
0.0
 40
17.59076260592746
100
AcDbArc
 50
66.5955290728
 51
113.4480015738
  0
LINE
  5
AD
330
1F
100
AcDbEntity
  8
0
  6
Continuous
 62
     7
370
    25
100
AcDbLine
 10
92.2893526976
 20
134.6754170122
 30
0.0
 11
92.2893526976
 21
100.6754170122
 31
0.0
  0
LINE
  5
AE
330
1F
100
AcDbEntity
  8
0
  6
Continuous
 62
     7
370
    25
100
AcDbLine
 10
77.2893526976
 20
80.1754170122
 30
0.0
 11
91.2893526976
 21
80.1754170122
 31
0.0
  0
LINE
  5
AF
330
1F
100
AcDbEntity
  8
0
  6
Continuous
 62
     7
370
    25
100
AcDbLine
 10
16.2893526976
 20
68.6754170122
 30
0.0
 11
30.2893526976
 21
68.6754170122
 31
0.0
  0
LINE
  5
B0
330
1F
100
AcDbEntity
  8
0
  6
Continuous
 62
     1
370
    25
100
AcDbLine
 10
54.6373836053
 20
137.6092779279
 30
0.0
 11
54.6373836053
 21
97.7415560966
 31
0.0
  0
LINE
  5
B1
330
1F
100
AcDbEntity
  8
0
  6
Continuous
 62
     1
370
    25
100
AcDbLine
 10
52.6850094849
 20
139.1754170122
 30
0.0
 11
52.6850094849
 21
96.1754170122
 31
0.0
  0
LINE
  5
B2
330
1F
100
AcDbEntity
  8
0
  6
Continuous
 62
     1
370
    25
100
AcDbLine
 10
54.94132179
 20
136.2415560966
 30
0.0
 11
54.94132179
 21
99.1092779279
 31
0.0
  0
LINE
  5
B3
330
1F
100
AcDbEntity
  8
0
  6
Continuous
 62
     1
370
    25
100
AcDbLine
 10
56.8936959104
 20
134.6754170122
 30
0.0
 11
56.8936959104
 21
100.6754170122
 31
0.0
  0
ARC
  5
B4
330
1F
100
AcDbEntity
  8
0
  6
Continuous
 62
     7
370
    25
100
AcDbCircle
 10
155.6701403815
 20
201.8088567476
 30
0.0
 40
2.000000000000018
100
AcDbArc
 50
282.5288077092
 51
0.0
  0
ARC
  5
B5
330
1F
100
AcDbEntity
  8
0
  6
Continuous
 62
     7
370
    25
100
AcDbCircle
 10
116.6701403815
 20
201.8088567476
 30
0.0
 40
2.000000000000015
100
AcDbArc
 50
180.0
 51
257.4711922908
  0
LINE
  5
B6
330
1F
100
AcDbEntity
  8
0
  6
Continuous
 62
     7
370
    25
100
AcDbLine
 10
157.6701403815
 20
201.8088567476
 30
0.0
 11
157.6701403815
 21
239.2045135349
 31
0.0
  0
LINE
  5
B7
330
1F
100
AcDbEntity
  8
0
  6
Continuous
 62
     7
370
    25
100
AcDbLine
 10
114.6701403815
 20
239.2045135349
 30
0.0
 11
114.6701403815
 21
201.8088567476
 31
0.0
  0
LINE
  5
B8
330
1F
100
AcDbEntity
  8
0
  6
Continuous
 62
     7
370
    25
100
AcDbLine
 10
116.2362794659
 20
199.8564826273
 30
0.0
 11
117.6040012971
 21
199.5525444425
 31
0.0
  0
LINE
  5
B9
330
1F
100
AcDbEntity
  8
0
  6
Continuous
 62
     7
370
    25
100
AcDbLine
 10
154.7362794659
 20
199.5525444425
 30
0.0
 11
156.1040012971
 21
199.8564826273
 31
0.0
  0
ARC
  5
BA
330
1F
100
AcDbEntity
  8
0
  6
Continuous
 62
     7
370
    25
100
AcDbCircle
 10
155.1701403815
 20
197.6001703222
 30
0.0
 40
2.0
100
AcDbArc
 50
102.5288077092
 51
180.0
  0
ARC
  5
BB
330
1F
100
AcDbEntity
  8
0
  6
Continuous
 62
     7
370
    25
100
AcDbCircle
 10
117.1701403815
 20
197.6001703222
 30
0.0
 40
2.0
100
AcDbArc
 50
0.0
 51
77.4711922908
  0
LINE
  5
BC
330
1F
100
AcDbEntity
  8
0
  6
Continuous
 62
     7
370
    25
100
AcDbLine
 10
153.1701403815
 20
162.2045135349
 30
0.0
 11
153.1701403815
 21
197.6001703222
 31
0.0
  0
LINE
  5
BD
330
1F
100
AcDbEntity
  8
0
  6
Continuous
 62
     7
370
    25
100
AcDbLine
 10
119.1701403815
 20
197.6001703222
 30
0.0
 11
119.1701403815
 21
162.2045135349
 31
0.0
  0
CIRCLE
  5
BE
330
1F
100
AcDbEntity
  8
0
  6
Continuous
 62
     7
370
    25
100
AcDbCircle
 10
136.1701403815
 20
231.2045135349
 30
0.0
 40
7.0
  0
CIRCLE
  5
BF
330
1F
100
AcDbEntity
  8
0
  6
Continuous
 62
     7
370
    25
100
AcDbCircle
 10
136.1701403815
 20
231.2045135349
 30
0.0
 40
5.0
  0
CIRCLE
  5
C0
330
1F
100
AcDbEntity
  8
0
  6
Continuous
 62
     7
370
    25
100
AcDbCircle
 10
136.1701403815
 20
170.2045135349
 30
0.0
 40
6.999999999999972
  0
CIRCLE
  5
C1
330
1F
100
AcDbEntity
  8
0
  6
Continuous
 62
     7
370
    25
100
AcDbCircle
 10
136.1701403815
 20
170.2045135349
 30
0.0
 40
5.0
  0
LINE
  5
C2
330
1F
100
AcDbEntity
  8
0
  6
Continuous
 62
     7
370
    25
100
AcDbLine
 10
157.6701403815
 20
239.2045135349
 30
0.0
 11
114.6701403815
 21
239.2045135349
 31
0.0
  0
LINE
  5
C3
330
1F
100
AcDbEntity
  8
0
  6
Continuous
 62
     7
370
    25
100
AcDbLine
 10
153.1701403815
 20
162.2045135349
 30
0.0
 11
119.1701403815
 21
162.2045135349
 31
0.0
  0
LINE
  5
C4
330
1F
100
AcDbEntity
  8
0
  6
Continuous
 62
     1
370
    25
100
AcDbLine
 10
156.1040012971
 20
199.8564826273
 30
0.0
 11
116.2362794659
 21
199.8564826273
 31
0.0
  0
LINE
  5
C5
330
1F
100
AcDbEntity
  8
0
  6
Continuous
 62
     1
370
    25
100
AcDbLine
 10
157.6701403815
 20
201.8088567476
 30
0.0
 11
114.6701403815
 21
201.8088567476
 31
0.0
  0
LINE
  5
C6
330
1F
100
AcDbEntity
  8
0
  6
Continuous
 62
     1
370
    25
100
AcDbLine
 10
154.7362794659
 20
199.5525444425
 30
0.0
 11
117.6040012971
 21
199.5525444425
 31
0.0
  0
LINE
  5
C7
330
1F
100
AcDbEntity
  8
0
  6
Continuous
 62
     1
370
    25
100
AcDbLine
 10
153.1701403815
 20
197.6001703222
 30
0.0
 11
119.1701403815
 21
197.6001703222
 31
0.0
  0
INSERT
  5
D3
330
1F
100
AcDbEntity
  8
FORMAT
 62
     7
100
AcDbBlockReference
  2
SW_CENTERMARKSYMBOL_1
 10
136.1701403815
 20
170.2045135349
 30
0.0
  0
INSERT
  5
DF
330
1F
100
AcDbEntity
  8
FORMAT
 62
     7
100
AcDbBlockReference
  2
SW_CENTERMARKSYMBOL_2
 10
136.1701403815
 20
231.2045135349
 30
0.0
  0
ARC
  5
E0
330
1F
100
AcDbEntity
  8
0
  6
Continuous
 62
     7
370
    25
100
AcDbCircle
 10
224.6652812471
 20
98.1754170122
 30
0.0
 40
2.000000000000014
100
AcDbArc
 50
192.5288077092
 51
270.0
  0
ARC
  5
E1
330
1F
100
AcDbEntity
  8
0
  6
Continuous
 62
     7
370
    25
100
AcDbCircle
 10
224.6652812471
 20
137.1754170122
 30
0.0
 40
2.0
100
AcDbArc
 50
90.0
 51
167.4711922908
  0
LINE
  5
E2
330
1F
100
AcDbEntity
  8
0
  6
Continuous
 62
     7
370
    25
100
AcDbLine
 10
261.0609380343
 20
96.1754170122
 30
0.0
 11
262.0609380343
 21
96.1754170122
 31
0.0
  0
LINE
  5
E3
330
1F
100
AcDbEntity
  8
0
  6
Continuous
 62
     7
370
    25
100
AcDbLine
 10
224.6652812471
 20
96.1754170122
 30
0.0
 11
247.0641337209
 21
96.1754170122
 31
0.0
  0
LINE
  5
E4
330
1F
100
AcDbEntity
  8
0
  6
Continuous
 62
     7
370
    25
100
AcDbLine
 10
262.0609380343
 20
139.1754170122
 30
0.0
 11
224.6652812471
 21
139.1754170122
 31
0.0
  0
LINE
  5
E5
330
1F
100
AcDbEntity
  8
0
  6
Continuous
 62
     7
370
    25
100
AcDbLine
 10
222.7129071267
 20
137.6092779279
 30
0.0
 11
222.408968942
 21
136.2415560966
 31
0.0
  0
LINE
  5
E6
330
1F
100
AcDbEntity
  8
0
  6
Continuous
 62
     7
370
    25
100
AcDbLine
 10
222.408968942
 20
99.1092779279
 30
0.0
 11
222.7129071267
 21
97.7415560966
 31
0.0
  0
ARC
  5
E7
330
1F
100
AcDbEntity
  8
0
  6
Continuous
 62
     7
370
    25
100
AcDbCircle
 10
220.4565948216
 20
98.6754170122
 30
0.0
 40
2.0
100
AcDbArc
 50
12.5288077092
 51
90.0
  0
ARC
  5
E8
330
1F
100
AcDbEntity
  8
0
  6
Continuous
 62
     7
370
    25
100
AcDbCircle
 10
220.4565948216
 20
136.6754170122
 30
0.0
 40
2.0
100
AcDbArc
 50
270.0
 51
347.4711922908
  0
LINE
  5
E9
330
1F
100
AcDbEntity
  8
0
  6
Continuous
 62
     7
370
    25
100
AcDbLine
 10
200.0609380343
 20
100.6754170122
 30
0.0
 11
220.4565948216
 21
100.6754170122
 31
0.0
  0
LINE
  5
EA
330
1F
100
AcDbEntity
  8
0
  6
Continuous
 62
     7
370
    25
100
AcDbLine
 10
185.0609380343
 20
100.6754170122
 30
0.0
 11
186.0738870139
 21
100.6754170122
 31
0.0
  0
LINE
  5
EB
330
1F
100
AcDbEntity
  8
0
  6
Continuous
 62
     7
370
    25
100
AcDbLine
 10
220.4565948216
 20
134.6754170122
 30
0.0
 11
185.0609380343
 21
134.6754170122
 31
0.0
  0
LINE
  5
EC
330
1F
100
AcDbEntity
  8
0
  6
Continuous
 62
     7
370
    25
100
AcDbLine
 10
186.0609380343
 20
100.6807159372
 30
0.0
 11
186.0609380343
 21
80.1754170122
 31
0.0
  0
LINE
  5
ED
330
1F
100
AcDbEntity
  8
0
  6
Continuous
 62
     7
370
    25
100
AcDbLine
 10
200.0609380343
 20
80.1754170122
 30
0.0
 11
200.0609380343
 21
100.6754170122
 31
0.0
  0
LINE
  5
EE
330
1F
100
AcDbEntity
  8
0
  6
Continuous
 62
     7
370
    25
100
AcDbLine
 10
247.0609380343
 20
96.1764466839
 30
0.0
 11
247.0609380343
 21
68.6754170122
 31
0.0
  0
LINE
  5
EF
330
1F
100
AcDbEntity
  8
0
  6
Continuous
 62
     7
370
    25
100
AcDbLine
 10
261.0609380343
 20
68.6754170122
 30
0.0
 11
261.0609380343
 21
96.1754170122
 31
0.0
  0
LINE
  5
F0
330
1F
100
AcDbEntity
  8
0
  6
Continuous
 62
     7
370
    25
100
AcDbLine
 10
262.0609380343
 20
117.6754170122
 30
0.0
 11
262.0609380343
 21
139.1754170122
 31
0.0
  0
LINE
  5
F1
330
1F
100
AcDbEntity
  8
0
  6
Continuous
 62
     7
370
    25
100
AcDbLine
 10
262.0609380343
 20
96.1754170122
 30
0.0
 11
262.0609380343
 21
117.6754170122
 31
0.0
  0
SPLINE
  5
F2
330
1F
100
AcDbEntity
  8
0
  6
Continuous
 62
     7
370
    25
100
AcDbSpline
210
0.0
220
0.0
230
1.0
 70
     8
 71
     3
 72
    26
 73
    22
 74
     0
 42
0.00000001
 43
0.00000001
 40
0.0
 40
0.0
 40
0.0
 40
0.0
 40
0.0510509714993759
 40
0.1036284924752937
 40
0.1546672764786588
 40
0.2071062475484872
 40
0.2596831506879012
 40
0.3137032588986005
 40
0.367618110035705
 40
0.4231954575207102
 40
0.4753284598983344
 40
0.5291134902973468
 40
0.5790679523375006
 40
0.6304326630502287
 40
0.6812205579258461
 40
0.7333477260872872
 40
0.7866140675734791
 40
0.8413929832575849
 40
0.8950552265803573
 40
0.9504063201805375
 40
1.0
 40
1.0
 40
1.0
 40
1.0
 10
261.0609380343419
 20
96.1754170122378
 30
0.0
 10
261.043283808568
 20
96.1811979116924
 30
0.0
 10
261.0074474522945
 20
96.19293257369853
 30
0.0
 10
260.7200026225595
 20
96.28494982187256
 30
0.0
 10
260.2678459207409
 20
96.42238768497533
 30
0.0
 10
259.6505803918478
 20
96.59595752586351
 30
0.0
 10
258.8730480655931
 20
96.79050618346318
 30
0.0
 10
257.954320029192
 20
96.98494145954228
 30
0.0
 10
256.9037746637092
 20
97.15875162009867
 30
0.0
 10
255.7768368283599
 20
97.28550530455932
 30
0.0
 10
254.5975356936401
 20
97.35110014954893
 30
0.0
 10
253.4420001290329
 20
97.34826163073754
 30
0.0
 10
252.3120643007944
 20
97.28137873973333
 30
0.0
 10
251.2525215143293
 20
97.16228036888211
 30
0.0
 10
250.2555055006319
 20
97.00078930382342
 30
0.0
 10
249.3483972422811
 20
96.81334861483835
 30
0.0
 10
248.547489779878
 20
96.61645801236492
 30
0.0
 10
247.8918042168559
 20
96.43368937398904
 30
0.0
 10
247.4082931517572
 20
96.28707456433705
 30
0.0
 10
247.1121875348712
 20
96.19219237669418
 30
0.0
 10
247.0795549019538
 20
96.18150329011114
 30
0.0
 10
247.0641337209284
 20
96.17645195577317
 30
0.0
  0
SPLINE
  5
F3
330
1F
100
AcDbEntity
  8
0
  6
Continuous
 62
     7
370
    25
100
AcDbSpline
210
0.0
220
0.0
230
1.0
 70
     8
 71
     3
 72
    27
 73
    23
 74
     0
 42
0.00000001
 43
0.00000001
 40
0.0
 40
0.0
 40
0.0
 40
0.0
 40
0.0499725686436194
 40
0.1014648209594048
 40
0.1514195659558142
 40
0.2027088154174484
 40
0.254925646431301
 40
0.308520090932754
 40
0.3630887877719766
 40
0.4193881555655952
 40
0.4712914614838932
 40
0.5249518940070188
 40
0.5731171558402597
 40
0.6226309617583607
 40
0.6719002429475959
 40
0.7223934108939767
 40
0.7756625035850938
 40
0.8304042658374996
 40
0.8847020333558951
 40
0.940780474466183
 40
0.9917066063843915
 40
1.0
 40
1.0
 40
1.0
 40
1.0
 10
200.0609380343419
 20
100.6754170122378
 30
0.0
 10
200.0438592122072
 20
100.6824857120446
 30
0.0
 10
200.0091821948529
 20
100.6968380733456
 30
0.0
 10
199.7315043106576
 20
100.8094518252588
 30
0.0
 10
199.296140427535
 20
100.977979329088
 30
0.0
 10
198.7007632467346
 20
101.1928608666442
 30
0.0
 10
197.9476031987207
 20
101.4374074927257
 30
0.0
 10
197.045562936216
 20
101.6884837304655
 30
0.0
 10
196.0017282942683
 20
101.9193492176866
 30
0.0
 10
194.8722944309465
 20
102.0922565908745
 30
0.0
 10
193.6890581843448
 20
102.1855916450609
 30
0.0
 10
192.5436744752661
 20
102.1886907454271
 30
0.0
 10
191.4342356360968
 20
102.1101285662326
 30
0.0
 10
190.4021896070548
 20
101.9674602060513
 30
0.0
 10
189.4259293178711
 20
101.7714191124555
 30
0.0
 10
188.5201402992899
 20
101.5388607739746
 30
0.0
 10
187.7024409855321
 20
101.2882049718655
 30
0.0
 10
187.0146441839898
 20
101.0486337083058
 30
0.0
 10
186.4820911839633
 20
100.8459437885616
 30
0.0
 10
186.170699704882
 20
100.7207030942246
 30
0.0
 10
186.0401736683973
 20
100.6668992187674
 30
0.0
 10
186.0697456133356
 20
100.6790313253578
 30
0.0
 10
186.0738870139486
 20
100.6807303652342
 30
0.0
  0
LINE
  5
F4
330
1F
100
AcDbEntity
  8
0
  6
Continuous
 62
     7
370
    25
100
AcDbLine
 10
185.0609380343
 20
117.6754170122
 30
0.0
 11
185.0609380343
 21
134.6754170122
 31
0.0
  0
LINE
  5
F5
330
1F
100
AcDbEntity
  8
0
  6
Continuous
 62
     7
370
    25
100
AcDbLine
 10
185.0609380343
 20
100.6754170122
 30
0.0
 11
185.0609380343
 21
117.6754170122
 31
0.0
  0
LINE
  5
F6
330
1F
100
AcDbEntity
  8
0
  6
Continuous
 62
     7
370
    25
100
AcDbLine
 10
186.0609380343
 20
80.1754170122
 30
0.0
 11
200.0609380343
 21
80.1754170122
 31
0.0
  0
LINE
  5
F7
330
1F
100
AcDbEntity
  8
0
  6
Continuous
 62
     7
370
    25
100
AcDbLine
 10
247.0609380343
 20
68.6754170122
 30
0.0
 11
261.0609380343
 21
68.6754170122
 31
0.0
  0
LINE
  5
F8
330
1F
100
AcDbEntity
  8
0
  6
Continuous
 62
     1
370
    25
100
AcDbLine
 10
222.7129071267
 20
117.6754170122
 30
0.0
 11
222.7129071267
 21
137.6092779279
 31
0.0
  0
LINE
  5
F9
330
1F
100
AcDbEntity
  8
0
  6
Continuous
 62
     1
370
    25
100
AcDbLine
 10
222.7129071267
 20
97.7415560966
 30
0.0
 11
222.7129071267
 21
117.6754170122
 31
0.0
  0
LINE
  5
FA
330
1F
100
AcDbEntity
  8
0
  6
Continuous
 62
     1
370
    25
100
AcDbLine
 10
224.6652812471
 20
117.6754170122
 30
0.0
 11
224.6652812471
 21
139.1754170122
 31
0.0
  0
LINE
  5
FB
330
1F
100
AcDbEntity
  8
0
  6
Continuous
 62
     1
370
    25
100
AcDbLine
 10
224.6652812471
 20
96.1754170122
 30
0.0
 11
224.6652812471
 21
117.6754170122
 31
0.0
  0
LINE
  5
FC
330
1F
100
AcDbEntity
  8
0
  6
Continuous
 62
     1
370
    25
100
AcDbLine
 10
222.408968942
 20
117.6754170122
 30
0.0
 11
222.408968942
 21
136.2415560966
 31
0.0
  0
LINE
  5
FD
330
1F
100
AcDbEntity
  8
0
  6
Continuous
 62
     1
370
    25
100
AcDbLine
 10
222.408968942
 20
99.1092779279
 30
0.0
 11
222.408968942
 21
117.6754170122
 31
0.0
  0
LINE
  5
FE
330
1F
100
AcDbEntity
  8
0
  6
Continuous
 62
     1
370
    25
100
AcDbLine
 10
220.4565948216
 20
117.6754170122
 30
0.0
 11
220.4565948216
 21
134.6754170122
 31
0.0
  0
LINE
  5
FF
330
1F
100
AcDbEntity
  8
0
  6
Continuous
 62
     1
370
    25
100
AcDbLine
 10
220.4565948216
 20
100.6754170122
 30
0.0
 11
220.4565948216
 21
117.6754170122
 31
0.0
  0
ARC
  5
100
330
1F
100
AcDbEntity
  8
0
  6
Continuous
 62
     7
370
    25
100
AcDbCircle
 10
116.6701403815
 20
12.0738095151
 30
0.0
 40
2.0
100
AcDbArc
 50
102.5288077092
 51
180.0
  0
ARC
  5
101
330
1F
100
AcDbEntity
  8
0
  6
Continuous
 62
     7
370
    25
100
AcDbCircle
 10
155.6701403815
 20
12.0738095151
 30
0.0
 40
2.000000000000004
100
AcDbArc
 50
0.0
 51
77.4711922908
  0
LINE
  5
102
330
1F
100
AcDbEntity
  8
0
  6
Continuous
 62
     7
370
    25
100
AcDbLine
 10
114.6701403815
 20
12.0738095151
 30
0.0
 11
114.6701403815
 21
-25.3218472722
 31
0.0
  0
LINE
  5
103
330
1F
100
AcDbEntity
  8
0
  6
Continuous
 62
     7
370
    25
100
AcDbLine
 10
157.6701403815
 20
-25.3218472722
 30
0.0
 11
157.6701403815
 21
12.0738095151
 31
0.0
  0
LINE
  5
104
330
1F
100
AcDbEntity
  8
0
  6
Continuous
 62
     7
370
    25
100
AcDbLine
 10
156.1040012971
 20
14.0261836355
 30
0.0
 11
154.7362794659
 21
14.3301218202
 31
0.0
  0
LINE
  5
105
330
1F
100
AcDbEntity
  8
0
  6
Continuous
 62
     7
370
    25
100
AcDbLine
 10
117.6040012971
 20
14.3301218202
 30
0.0
 11
116.2362794659
 21
14.0261836355
 31
0.0
  0
ARC
  5
106
330
1F
100
AcDbEntity
  8
0
  6
Continuous
 62
     7
370
    25
100
AcDbCircle
 10
117.1701403815
 20
16.2824959406
 30
0.0
 40
2.0
100
AcDbArc
 50
282.5288077092
 51
0.0
  0
ARC
  5
107
330
1F
100
AcDbEntity
  8
0
  6
Continuous
 62
     7
370
    25
100
AcDbCircle
 10
155.1701403815
 20
16.2824959406
 30
0.0
 40
2.0
100
AcDbArc
 50
180.0
 51
257.4711922908
  0
LINE
  5
108
330
1F
100
AcDbEntity
  8
0
  6
Continuous
 62
     7
370
    25
100
AcDbLine
 10
119.1701403815
 20
51.6781527278
 30
0.0
 11
119.1701403815
 21
16.2824959406
 31
0.0
  0
LINE
  5
109
330
1F
100
AcDbEntity
  8
0
  6
Continuous
 62
     7
370
    25
100
AcDbLine
 10
153.1701403815
 20
16.2824959406
 30
0.0
 11
153.1701403815
 21
51.6781527278
 31
0.0
  0
LINE
  5
10A
330
1F
100
AcDbEntity
  8
0
  6
Continuous
 62
     7
370
    25
100
AcDbLine
 10
114.6701403815
 20
-25.3218472722
 30
0.0
 11
157.6701403815
 21
-25.3218472722
 31
0.0
  0
LINE
  5
10B
330
1F
100
AcDbEntity
  8
0
  6
Continuous
 62
     7
370
    25
100
AcDbLine
 10
119.1701403815
 20
51.6781527278
 30
0.0
 11
153.1701403815
 21
51.6781527278
 31
0.0
  0
LINE
  5
10C
330
1F
100
AcDbEntity
  8
0
  6
Continuous
 62
     1
370
    25
100
AcDbLine
 10
116.2362794659
 20
14.0261836355
 30
0.0
 11
156.1040012971
 21
14.0261836355
 31
0.0
  0
LINE
  5
10D
330
1F
100
AcDbEntity
  8
0
  6
Continuous
 62
     1
370
    25
100
AcDbLine
 10
114.6701403815
 20
12.0738095151
 30
0.0
 11
157.6701403815
 21
12.0738095151
 31
0.0
  0
LINE
  5
10E
330
1F
100
AcDbEntity
  8
0
  6
Continuous
 62
     1
370
    25
100
AcDbLine
 10
117.6040012971
 20
14.3301218202
 30
0.0
 11
154.7362794659
 21
14.3301218202
 31
0.0
  0
LINE
  5
10F
330
1F
100
AcDbEntity
  8
0
  6
Continuous
 62
     1
370
    25
100
AcDbLine
 10
119.1701403815
 20
16.2824959406
 30
0.0
 11
153.1701403815
 21
16.2824959406
 31
0.0
  0
LINE
  5
110
330
1F
100
AcDbEntity
  8
0
  6
Continuous
 62
     7
370
    25
100
AcDbLine
 10
201.5871899111
 20
8.9582810524
 30
0.0
 11
201.5871899111
 21
-13.9685684019
 31
0.0
  0
LINE
  5
111
330
1F
100
AcDbEntity
  8
0
  6
Continuous
 62
     7
370
    25
100
AcDbLine
 10
215.5871899111
 20
-13.9685684019
 30
0.0
 11
215.5871899111
 21
8.9582971907
 31
0.0
  0
LINE
  5
112
330
1F
100
AcDbEntity
  8
0
  6
Continuous
 62
     7
370
    25
100
AcDbLine
 10
240.1221845387
 20
32.6625555949
 30
0.0
 11
213.6794620375
 21
47.927614369
 31
0.0
  0
LINE
  5
113
330
1F
100
AcDbEntity
  8
0
  6
Continuous
 62
     7
370
    25
100
AcDbLine
 10
192.1812092858
 20
10.6875132866
 30
0.0
 11
201.5871899111
 21
5.2575562515
 31
0.0
  0
LINE
  5
114
330
1F
100
AcDbEntity
  8
0
  6
Continuous
 62
     7
370
    25
100
AcDbLine
 10
215.5871899111
 20
-2.8244717177
 30
0.0
 11
218.623931787
 21
-4.5775454874
 31
0.0
  0
SPLINE
  5
115
330
1F
100
AcDbEntity
  8
0
  6
Continuous
 62
     7
370
    25
100
AcDbSpline
210
0.0
220
0.0
230
1.0
 70
     8
 71
     3
 72
    63
 73
    59
 74
     0
 42
0.00000001
 43
0.00000001
 40
0.0
 40
0.0
 40
0.0
 40
0.0
 40
0.0099061701120486
 40
0.0270293684482316
 40
0.0441632099670227
 40
0.0613627465793739
 40
0.0786770163907601
 40
0.0961453319075276
 40
0.1137942685785873
 40
0.1316357890655883
 40
0.1496670041464661
 40
0.1678718573530815
 40
0.1862245403276843
 40
0.2046939059108704
 40
0.223247856978418
 40
0.2418568236134958
 40
0.2604958896564517
 40
0.2791444354233482
 40
0.2977859412181322
 40
0.3164123050379278
 40
0.3350188563021473
 40
0.3536035055134096
 40
0.3721660293694956
 40
0.3907075117042322
 40
0.4092299268115274
 40
0.4277358402239897
 40
0.4462282006118634
 40
0.4647101994701774
 40
0.4831851795644483
 40
0.5016565772247402
 40
0.5201278869233108
 40
0.5386019494288369
 40
0.5570818298743562
 40
0.5755710867750042
 40
0.5940732619093392
 40
0.6125918422427479
 40
0.6311301978164657
 40
0.6496914829729786
 40
0.6682784845984799
 40
0.6868933963079886
 40
0.7055374923494792
 40
0.724210670927852
 40
0.7429108368473746
 40
0.7616331039008367
 40
0.780368828254252
 40
0.7990992269982539
 40
0.8178026646256692
 40
0.8364516135496864
 40
0.8550130991236686
 40
0.8734510781428332
 40
0.8917304935958569
 40
0.9098224908480487
 40
0.9277096335861772
 40
0.9453897319397456
 40
0.9628773171056716
 40
0.9802026220879585
 40
0.997408642655764
 40
1.0
 40
1.0
 40
1.0
 40
1.0
 10
218.6223483054196
 20
-4.566804062637493
 30
0.0
 10
218.7501562458953
 20
-4.641964853587619
 30
0.0
 10
219.0988851567307
 20
-4.847043979876845
 30
0.0
 10
219.7057643524675
 20
-5.114283535546601
 30
0.0
 10
220.4352930556054
 20
-5.37296668963038
 30
0.0
 10
221.1934211407118
 20
-5.565722974697318
 30
0.0
 10
221.9764859243667
 20
-5.695634535337581
 30
0.0
 10
222.7833895525334
 20
-5.761177243548583
 30
0.0
 10
223.6121746109492
 20
-5.761958422586384
 30
0.0
 10
224.4607656575469
 20
-5.697295182647982
 30
0.0
 10
225.3266398257251
 20
-5.566777221148143
 30
0.0
 10
226.2068774575943
 20
-5.370300024164089
 30
0.0
 10
227.0982098049295
 20
-5.108205601738479
 30
0.0
 10
227.9971486365446
 20
-4.781322532624539
 30
0.0
 10
228.9001318340722
 20
-4.39095094041745
 30
0.0
 10
229.8036546142642
 20
-3.938795057424026
 30
0.0
 10
230.7043406180313
 20
-3.42688453186454
 30
0.0
 10
231.5989664132368
 20
-2.857505966542804
 30
0.0
 10
232.4845291291875
 20
-2.233103181543881
 30
0.0
 10
233.3582414995338
 20
-1.556208363834112
 30
0.0
 10
234.2175149925242
 20
-0.829388575239235
 30
0.0
 10
235.0598663959893
 20
-0.0552785620837534
 30
0.0
 10
235.8828957461089
 20
0.7634207870813289
 30
0.0
 10
236.6842712913745
 20
1.623940887797056
 30
0.0
 10
237.4617208524341
 20
2.523443443162728
 30
0.0
 10
238.2130283058071
 20
3.459019439725775
 30
0.0
 10
238.9360338241407
 20
4.427689852562631
 30
0.0
 10
239.6286366493318
 20
5.42640827439696
 30
0.0
 10
240.288799392935
 20
6.452065407548688
 30
0.0
 10
240.9145530720019
 20
7.501495205770908
 30
0.0
 10
241.5039949430065
 20
8.571469077062881
 30
0.0
 10
242.0552979755542
 20
9.658707265599105
 30
0.0
 10
242.5667217742107
 20
10.75989782977094
 30
0.0
 10
243.0366212489996
 20
11.87172125772696
 30
0.0
 10
243.4634445451276
 20
12.99085699010303
 30
0.0
 10
243.8457288058136
 20
14.11398289532146
 30
0.0
 10
244.1820993785742
 20
15.23778308987235
 30
0.0
 10
244.4712676733837
 20
16.35895378324533
 30
0.0
 10
244.7120279108365
 20
17.47420617140209
 30
0.0
 10
244.9032533094869
 20
18.5802651998597
 30
0.0
 10
245.0438927366285
 20
19.67386283959491
 30
0.0
 10
245.1329695441433
 20
20.75172447119114
 30
0.0
 10
245.169585260704
 20
21.81054725966516
 30
0.0
 10
245.1529319614449
 20
22.8469702885947
 30
0.0
 10
245.0823249173787
 20
23.85744262000793
 30
0.0
 10
244.9572693796836
 20
24.83825206505721
 30
0.0
 10
244.777540675601
 20
25.78551534848462
 30
0.0
 10
244.5432535812028
 20
26.69527448861207
 30
0.0
 10
244.2549607433319
 20
27.56350156520782
 30
0.0
 10
243.9137302532191
 20
28.38620458516532
 30
0.0
 10
243.5211908123348
 20
29.15961021700961
 30
0.0
 10
243.0794623509188
 20
29.88027805833499
 30
0.0
 10
242.591188080587
 20
30.54549633125137
 30
0.0
 10
242.0588751150508
 20
31.15246411959807
 30
0.0
 10
241.4865578845901
 20
31.70157538274146
 30
0.0
 10
240.8728784224156
 20
32.18422054151922
 30
0.0
 10
240.4152284014698
 20
32.50253340115702
 30
0.0
 10
240.1533135916492
 20
32.64108311227514
 30
0.0
 10
240.119030523002
 20
32.65921843368199
 30
0.0
  0
LINE
  5
116
330
1F
100
AcDbEntity
  8
0
  6
Continuous
 62
     7
370
    25
100
AcDbLine
 10
265.8768670404
 20
12.5986821831
 30
0.0
 11
244.9690885417
 21
24.6684857974
 31
0.0
  0
LINE
  5
117
330
1F
100
AcDbEntity
  8
0
  6
Continuous
 62
     7
370
    25
100
AcDbLine
 10
227.9742674068
 20
-4.7793676697
 30
0.0
 11
244.7207035635
 21
-14.4468794842
 31
0.0
  0
LINE
  5
118
330
1F
100
AcDbEntity
  8
0
  6
Continuous
 62
     7
370
    25
100
AcDbLine
 10
244.7207035635
 20
-12.1377960627
 30
0.0
 11
244.7207035635
 21
-29.4787964758
 31
0.0
  0
LINE
  5
119
330
1F
100
AcDbEntity
  8
0
  6
Continuous
 62
     7
370
    25
100
AcDbLine
 10
258.7207035635
 20
-29.4787964758
 30
0.0
 11
258.7207035635
 21
-12.1384735634
 31
0.0
  0
LWPOLYLINE
  5
11A
330
1F
100
AcDbEntity
  8
0
  6
Continuous
 62
     7
370
    25
100
AcDbPolyline
 90
       60
 70
   128
 43
0.0
 10
203.6374424428
 20
-11.1111400105
 10
204.1916096626
 20
-10.8236018895
 10
204.795580563
 20
-10.5716974958
 10
205.4425119124
 20
-10.3582810068
 10
206.12507372
 20
-10.1857705165
 10
206.8355322879
 20
-10.0561206378
 10
207.5658378366
 20
-9.9708003556
 10
208.3077157124
 20
-9.9307763828
 10
209.0527601426
 20
-9.936502207
 10
209.792529476
 20
-9.9879129523
 10
210.5186418305
 20
-10.0844261145
 10
211.222870063
 20
-10.2249481608
 10
211.8972349862
 20
-10.4078869203
 10
212.534095776
 20
-10.6311696237
 10
213.1262365454
 20
-10.8922663889
 10
213.6669481026
 20
-11.1882188851
 10
214.1501039698
 20
-11.5156738523
 10
214.5702297978
 20
-11.8709210949
 10
214.9225653933
 20
-12.2499355197
 10
215.203118653
 20
-12.6484227417
 10
215.4087107965
 20
-13.0618677416
 10
215.5370123826
 20
-13.4855860222
 10
215.5865697031
 20
-13.9147766862
 10
215.5568212538
 20
-14.3445768318
 10
215.4481040964
 20
-14.7701166517
 10
215.2616500399
 20
-15.1865746096
 10
214.999571683
 20
-15.5892320705
 10
214.6648384785
 20
-15.9735267645
 10
214.2612430872
 20
-16.335104479
 10
213.7933584062
 20
-16.6698683942
 10
213.2664857558
 20
-16.9740255011
 10
212.6865948137
 20
-17.2441295782
 10
212.0602559761
 20
-17.4771202382
 10
211.3945659122
 20
-17.670357604
 10
210.6970671565
 20
-17.821652219
 10
209.9756626484
 20
-17.9292898548
 10
209.2385261895
 20
-17.9920509338
 10
208.4940098303
 20
-18.0092243481
 10
207.7505492386
 20
-17.9806155159
 10
207.01656812
 20
-17.9065485868
 10
206.3003827739
 20
-17.7878627686
 10
205.6101078665
 20
-17.6259028192
 10
204.9535644882
 20
-17.4225038094
 10
204.3381915378
 20
-17.1799703313
 10
203.7709614369
 20
-16.9010503862
 10
203.258301129
 20
-16.5889042484
 10
202.8060192603
 20
-16.2470686585
 10
202.4192403652
 20
-15.8794167502
 10
202.102346803
 20
-15.4901141665
 10
201.8589291044
 20
-15.0835718614
 10
201.6917452893
 20
-14.6643961216
 10
201.602689617
 20
-14.2373363756
 10
201.5927711238
 20
-13.8072313812
 10
201.6621021904
 20
-13.3789543996
 10
201.809897268
 20
-12.9573579803
 10
202.0344817793
 20
-12.5472189791
 10
202.333311092
 20
-12.1531844348
 10
202.7029993507
 20
-11.7797189162
 10
203.1393578397
 20
-11.431053937
 10
203.6374424428
 20
-11.1111400105
  0
LWPOLYLINE
  5
11B
330
1F
100
AcDbEntity
  8
0
  6
Continuous
 62
     7
370
    25
100
AcDbPolyline
 90
       51
 70
   128
 43
0.0
 10
205.0516560052
 20
-11.9275481224
 10
205.5226546429
 20
-11.6878345055
 10
206.0419828324
 20
-11.4840894246
 10
206.601450458
 20
-11.3195260613
 10
207.192234381
 20
-11.1967396782
 10
207.8050175859
 20
-11.1176666899
 10
208.4301361158
 20
-11.0835541247
 10
209.0577314777
 20
-11.094939958
 10
209.6779061181
 20
-11.1516446285
 10
210.2808795124
 20
-11.2527738696
 10
210.8571424098
 20
-11.3967328129
 10
211.3976068004
 20
-11.5812511397
 10
211.8937492378
 20
-11.8034188859
 10
212.3377452593
 20
-12.0597323334
 10
212.7225927825
 20
-12.3461492659
 10
213.0422225321
 20
-12.6581527174
 10
213.2915937559
 20
-12.990822207
 10
213.4667737208
 20
-13.3389113383
 10
213.5649997342
 20
-13.6969305375
 10
213.584722713
 20
-14.0592336281
 10
213.5256316141
 20
-14.420106874
 10
213.3886583395
 20
-14.7738590884
 10
213.1759630396
 20
-15.1149113876
 10
212.8909000462
 20
-15.4378851732
 10
212.537964973
 20
-15.7376869555
 10
212.1227238171
 20
-16.0095886815
 10
211.6517251794
 20
-16.2493022984
 10
211.1323969899
 20
-16.4530473792
 10
210.5729293643
 20
-16.6176107425
 10
209.9821454413
 20
-16.7403971256
 10
209.3693622363
 20
-16.8194701139
 10
208.7442437065
 20
-16.8535826792
 10
208.1166483446
 20
-16.8421968458
 10
207.4964737042
 20
-16.7854921753
 10
206.8935003099
 20
-16.6843629342
 10
206.3172374125
 20
-16.5404039909
 10
205.7767730219
 20
-16.3558856641
 10
205.2806305845
 20
-16.1337179179
 10
204.836634563
 20
-15.8774044705
 10
204.4517870398
 20
-15.5909875379
 10
204.1321572902
 20
-15.2789840864
 10
203.8827860664
 20
-14.9463145968
 10
203.7076061015
 20
-14.5982254656
 10
203.6093800881
 20
-14.2402062663
 10
203.5896571093
 20
-13.8779031757
 10
203.6487482082
 20
-13.5170299298
 10
203.7857214828
 20
-13.1632777154
 10
203.9984167827
 20
-12.8222254162
 10
204.2834797761
 20
-12.4992516306
 10
204.6364148493
 20
-12.1994498483
 10
205.0516560052
 20
-11.9275481224
  0
SPLINE
  5
11C
330
1F
100
AcDbEntity
  8
0
  6
Continuous
 62
     7
370
    25
100
AcDbSpline
210
0.0
220
0.0
230
1.0
 70
     8
 71
     3
 72
    12
 73
     8
 74
     0
 42
0.00000001
 43
0.00000001
 40
0.0
 40
0.0
 40
0.0
 40
0.0
 40
0.2042158318758268
 40
0.4145382188689332
 40
0.6187052979088544
 40
0.8284734528570582
 40
0.9999999999999999
 40
0.9999999999999999
 40
0.9999999999999999
 40
0.9999999999999999
 10
203.6374424428427
 20
11.34373231632306
 30
0.0
 10
203.3835491640081
 20
11.18742870644994
 30
0.0
 10
202.8681705735036
 20
10.87014762474132
 30
0.0
 10
202.2864275512977
 20
10.37541688321011
 30
0.0
 10
201.8656293382184
 20
9.873179439139308
 30
0.0
 10
201.6219120427298
 20
9.401348862737642
 30
0.0
 10
201.6077283235657
 20
9.09546192311442
 30
0.0
 10
201.6013477356358
 20
8.957857780486831
 30
0.0
  0
SPLINE
  5
11D
330
1F
100
AcDbEntity
  8
0
  6
Continuous
 62
     7
370
    25
100
AcDbSpline
210
0.0
220
0.0
230
1.0
 70
     8
 71
     3
 72
    22
 73
    18
 74
     0
 42
0.00000001
 43
0.00000001
 40
0.0
 40
0.0
 40
0.0
 40
0.0
 40
0.0142364463842606
 40
0.0856877476405145
 40
0.1592152953120501
 40
0.2303475657839564
 40
0.3037544921943515
 40
0.3714433711641721
 40
0.4411704555099668
 40
0.507803969278694
 40
0.5762237174927294
 40
0.6456641875605692
 40
0.7169779115981435
 40
0.7888396245357766
 40
0.8628711044123138
 40
0.930449997148177
 40
1.0
 40
1.0
 40
1.0
 40
1.0
 10
215.5718779241029
 20
8.958730861756637
 30
0.0
 10
215.5766323749149
 20
9.01399921283326
 30
0.0
 10
215.6052489390738
 20
9.346653893062793
 30
0.0
 10
215.4668536571871
 20
9.966262739471935
 30
0.0
 10
215.1443652475037
 20
10.7641855437745
 30
0.0
 10
214.6091280408734
 20
11.49264178967252
 30
0.0
 10
213.9176829037227
 20
12.09504500080327
 30
0.0
 10
213.0808672557999
 20
12.56493075379283
 30
0.0
 10
212.1543971143489
 20
12.88592516689205
 30
0.0
 10
211.1366267754488
 20
13.07140334913455
 30
0.0
 10
210.0599576900777
 20
13.12672634327387
 30
0.0
 10
208.9234319141924
 20
13.05888041510414
 30
0.0
 10
207.7596112812113
 20
12.87589335635805
 30
0.0
 10
206.5905164858059
 20
12.58841592497328
 30
0.0
 10
205.4956165201607
 20
12.22294511169133
 30
0.0
 10
204.4852171184906
 20
11.80316004760473
 30
0.0
 10
203.9227290954918
 20
11.49833542414928
 30
0.0
 10
203.6374424428427
 20
11.34373231632306
 30
0.0
  0
LWPOLYLINE
  5
11E
330
1F
100
AcDbEntity
  8
0
  6
Continuous
 62
     7
370
    25
100
AcDbPolyline
 90
      105
 70
   128
 43
0.0
 10
187.7275398661
 20
20.5311766257
 10
187.7552765427
 20
21.6071710753
 10
187.8383853644
 20
22.711263423
 10
187.9765630759
 20
23.8394249556
 10
188.169305482
 20
24.9875391339
 10
188.4159092864
 20
26.1514166137
 10
188.7154746586
 20
27.3268105326
 10
189.0669085171
 20
28.5094320053
 10
189.4689285177
 20
29.6949657746
 10
189.9200677332
 20
30.8790859561
 10
190.4186800055
 20
32.0574718239
 10
190.9629459524
 20
33.2258235755
 10
191.5508796065
 20
34.3798780223
 10
192.1803356617
 20
35.5154241447
 10
192.849017301
 20
36.6283184579
 10
193.5544845778
 20
37.7145001315
 10
194.2941633185
 20
38.7700058062
 10
195.0653545154
 20
39.7909840562
 10
195.8652441756
 20
40.7737094428
 10
196.6909135885
 20
41.7145961074
 10
197.5393499759
 20
42.6102108568
 10
198.4074574854
 20
43.4572856898
 10
199.2920684868
 20
44.2527297222
 10
200.1899551307
 20
44.993640465
 10
201.0978411259
 20
45.6773144153
 10
202.0124136949
 20
46.3012569209
 10
202.9303356617
 20
46.8631912833
 10
203.8482576284
 20
47.361067065
 10
204.7628301974
 20
47.7930675712
 10
205.6707161927
 20
48.157616479
 10
206.5686028365
 20
48.4533835888
 10
207.453213838
 20
48.6792896787
 10
208.3213213475
 20
48.8345104417
 10
209.1697577348
 20
48.9184794941
 10
209.9954271477
 20
48.9308904421
 10
210.7953168079
 20
48.8716979992
 10
211.5665080048
 20
48.7411181525
 10
212.3061867455
 20
48.5396273735
 10
213.0116540223
 20
48.2679608803
 10
213.6803356617
 20
47.9271099545
 10
214.3097917168
 20
47.5183183241
 10
214.897725371
 20
47.0430776254
 10
215.4419913178
 20
46.5031219602
 10
215.9406035901
 20
45.9004215682
 10
216.3917428056
 20
45.2371756377
 10
216.7937628062
 20
44.5158042812
 10
217.1451966647
 20
43.7389397047
 10
217.4447620369
 20
42.9094166025
 10
217.6913658413
 20
42.0302618147
 10
217.8841082474
 20
41.1046832817
 10
218.022285959
 20
40.1360583391
 10
218.1053947806
 20
39.1279213944
 10
218.1331314572
 20
38.0839510299
 10
218.1053947806
 20
37.0079565802
 10
218.022285959
 20
35.9038642325
 10
217.8841082474
 20
34.7757027
 10
217.6913658413
 20
33.6275885217
 10
217.4447620369
 20
32.4637110418
 10
217.1451966647
 20
31.288317123
 10
216.7937628062
 20
30.1056956502
 10
216.3917428056
 20
28.920161881
 10
215.9406035901
 20
27.7360416994
 10
215.4419913178
 20
26.5576558317
 10
214.897725371
 20
25.38930408
 10
214.3097917168
 20
24.2352496333
 10
213.6803356617
 20
23.0997035109
 10
213.0116540223
 20
21.9868091976
 10
212.3061867455
 20
20.9006275241
 10
211.5665080048
 20
19.8451218494
 10
210.7953168079
 20
18.8241435993
 10
209.9954271477
 20
17.8414182128
 10
209.1697577348
 20
16.9005315481
 10
208.3213213475
 20
16.0049167988
 10
207.453213838
 20
15.1578419658
 10
206.5686028365
 20
14.3623979334
 10
205.6707161927
 20
13.6214871905
 10
204.7628301974
 20
12.9378132403
 10
203.8482576284
 20
12.3138707347
 10
202.9303356617
 20
11.7519363722
 10
202.0124136949
 20
11.2540605905
 10
201.0978411259
 20
10.8220600843
 10
200.1899551307
 20
10.4575111766
 10
199.2920684868
 20
10.1617440667
 10
198.4074574854
 20
9.9358379769
 10
197.5393499759
 20
9.7806172139
 10
196.6909135885
 20
9.6966481614
 10
195.8652441756
 20
9.6842372135
 10
195.0653545154
 20
9.7434296563
 10
194.2941633185
 20
9.8740095031
 10
193.5544845778
 20
10.075500282
 10
192.849017301
 20
10.3471667752
 10
192.1803356617
 20
10.6880177011
 10
191.5508796065
 20
11.0968093315
 10
190.9629459524
 20
11.5720500302
 10
190.4186800055
 20
12.1120056954
 10
189.9200677332
 20
12.7147060874
 10
189.4689285177
 20
13.3779520179
 10
189.0669085171
 20
14.0993233743
 10
188.7154746586
 20
14.8761879509
 10
188.4159092864
 20
15.705711053
 10
188.169305482
 20
16.5848658408
 10
187.9765630759
 20
17.5104443739
 10
187.8383853644
 20
18.4790693164
 10
187.7552765427
 20
19.4872062612
 10
187.7275398661
 20
20.5311766257
  0
LWPOLYLINE
  5
11F
330
1F
100
AcDbEntity
  8
0
  6
Continuous
 62
     7
370
    25
100
AcDbPolyline
 90
       91
 70
   128
 43
0.0
 10
191.6166271627
 20
22.7762989332
 10
191.6441867879
 20
23.7035528895
 10
191.7267313961
 20
24.6581090238
 10
191.863858838
 20
25.6353168345
 10
192.0549010426
 20
26.6304154635
 10
192.2989272714
 20
27.6385568901
 10
192.5947486533
 20
28.6548295508
 10
192.9409239762
 20
29.6742822673
 10
193.3357667086
 20
30.6919483684
 10
193.7773532166
 20
31.7028698872
 10
194.2635321349
 20
32.7021217157
 10
194.7919348489
 20
33.6848355993
 10
195.3599870336
 20
34.6462238549
 10
195.9649211958
 20
35.5816026954
 10
196.6037901571
 20
36.4864150493
 10
197.2734814122
 20
37.3562527616
 10
197.9707322925
 20
38.1868780705
 10
198.692145862
 20
38.9742442529
 10
199.4342074661
 20
39.71451534
 10
200.1933018553
 20
40.4040848055
 10
200.9657307982
 20
41.0395931361
 10
201.7477310984
 20
41.6179441993
 10
202.5354929292
 20
42.1363203267
 10
203.3251783941
 20
42.592196042
 10
204.1129402249
 20
42.9833503645
 10
204.8949405252
 20
43.3078776297
 10
205.667369468
 20
43.5641967734
 10
206.4264638572
 20
43.7510590344
 10
207.1685254614
 20
43.8675540386
 10
207.8899390308
 20
43.9131142341
 10
208.5871899111
 20
43.8875176562
 10
209.2568811662
 20
43.7908890088
 10
209.8957501275
 20
43.6236990569
 10
210.5006842897
 20
43.3867623333
 10
211.0687364744
 20
43.0812331698
 10
211.5971391884
 20
42.7086000737
 10
212.0833181067
 20
42.2706784762
 10
212.5249046147
 20
41.7696018871
 10
212.9197473471
 20
41.2078115013
 10
213.26592267
 20
40.5880443051
 10
213.5617440519
 20
39.9133197418
 10
213.8057702807
 20
39.1869250018
 10
213.9968124853
 20
38.4123990073
 10
214.1339399273
 20
37.593515171
 10
214.2164845354
 20
36.7342630126
 10
214.2440441606
 20
35.8388287224
 10
214.2164845354
 20
34.9115747661
 10
214.1339399273
 20
33.9570186318
 10
213.9968124853
 20
32.979810821
 10
213.8057702807
 20
31.9847121921
 10
213.5617440519
 20
30.9765707654
 10
213.26592267
 20
29.9602981047
 10
212.9197473471
 20
28.9408453882
 10
212.5249046147
 20
27.9231792871
 10
212.0833181067
 20
26.9122577683
 10
211.5971391884
 20
25.9130059399
 10
211.0687364744
 20
24.9302920562
 10
210.5006842897
 20
23.9689038007
 10
209.8957501275
 20
23.0335249601
 10
209.2568811662
 20
22.1287126063
 10
208.5871899111
 20
21.258874894
 10
207.8899390308
 20
20.4282495851
 10
207.1685254614
 20
19.6408834026
 10
206.4264638572
 20
18.9006123155
 10
205.667369468
 20
18.2110428501
 10
204.8949405252
 20
17.5755345194
 10
204.1129402249
 20
16.9971834563
 10
203.3251783941
 20
16.4788073289
 10
202.5354929292
 20
16.0229316136
 10
201.7477310984
 20
15.631777291
 10
200.9657307982
 20
15.3072500258
 10
200.1933018553
 20
15.0509308822
 10
199.4342074661
 20
14.8640686211
 10
198.692145862
 20
14.7475736169
 10
197.9707322925
 20
14.7020134214
 10
197.2734814122
 20
14.7276099994
 10
196.6037901571
 20
14.8242386468
 10
195.9649211958
 20
14.9914285986
 10
195.3599870336
 20
15.2283653223
 10
194.7919348489
 20
15.5338944858
 10
194.2635321349
 20
15.9065275818
 10
193.7773532166
 20
16.3444491794
 10
193.3357667086
 20
16.8455257684
 10
192.9409239762
 20
17.4073161542
 10
192.5947486533
 20
18.0270833505
 10
192.2989272714
 20
18.7018079137
 10
192.0549010426
 20
19.4282026537
 10
191.863858838
 20
20.2027286483
 10
191.7267313961
 20
21.0216124846
 10
191.6441867879
 20
21.8808646429
 10
191.6166271627
 20
22.7762989332
  0
LWPOLYLINE
  5
120
330
1F
100
AcDbEntity
  8
0
  6
Continuous
 62
     7
370
    25
100
AcDbPolyline
 90
       36
 70
   128
 43
0.0
 10
265.8768670404
 20
12.5986821831
 10
265.9490375529
 20
12.5563055135
 10
266.4984490482
 20
12.183057626
 10
267.0062440089
 20
11.7445292385
 10
267.4701054828
 20
11.2427212555
 10
267.8879169765
 20
10.6799233117
 10
268.2577721121
 20
10.0587033251
 10
268.5779833253
 20
9.38189578
 10
268.8470895658
 20
8.652588794
 10
269.0638629635
 20
7.8741100276
 10
269.2273144313
 20
7.0500115008
 10
269.3366981774
 20
6.1840533862
 10
269.391515109
 20
5.2801868521
 10
269.391515109
 20
4.3425360341
 10
269.3366981774
 20
3.3753792179
 10
269.2273144313
 20
2.3831293183
 10
269.0638629635
 20
1.3703137438
 10
268.8470895658
 20
0.3415537397
 10
268.5779833253
 20
-0.6984566981
 10
268.2577721121
 20
-1.7449722405
 10
267.8879169765
 20
-2.7932178771
 10
267.4701054828
 20
-3.8384107035
 10
267.0062440089
 20
-4.8757817445
 10
266.4984490482
 20
-5.900597714
 10
265.9490375529
 20
-6.9081826119
 10
265.3605163614
 20
-7.8939390592
 10
264.7355707611
 20
-8.8533692755
 10
264.0770522353
 20
-9.7820956007
 10
263.3879654531
 20
-10.6758804696
 10
262.6714545594
 20
-11.5306457468
 10
261.930788829
 20
-12.3424913345
 10
261.1693477498
 20
-13.1077129674
 10
260.3906056028
 20
-13.8228191147
 10
259.5981156098
 20
-14.4845469112
 10
258.7954937209
 20
-15.0898770445
 10
258.7207035635
 20
-15.1430372511
  0
SPLINE
  5
121
330
1F
100
AcDbEntity
  8
0
  6
Continuous
 62
     7
370
    25
100
AcDbSpline
210
0.0
220
0.0
230
1.0
 70
     8
 71
     3
 72
    12
 73
     8
 74
     0
 42
0.00000001
 43
0.00000001
 40
0.0
 40
0.0
 40
0.0
 40
0.0
 40
0.2029758430160666
 40
0.4059924497974794
 40
0.6085207305393717
 40
0.8111111310321918
 40
1.0
 40
1.0
 40
1.0
 40
1.0
 10
246.7709560952221
 20
-9.882281440783645
 30
0.0
 10
246.5178134607232
 20
-10.03697150991174
 30
0.0
 10
246.0114773529318
 20
-10.34638271467116
 30
0.0
 10
245.433668375589
 20
-10.81488247545018
 30
0.0
 10
245.0181782573916
 20
-11.27445628950077
 30
0.0
 10
244.7625201071131
 20
-11.71559969532614
 30
0.0
 10
244.7407292927741
 20
-12.00062402448825
 30
0.0
 10
244.7302152180952
 20
-12.13814835173529
 30
0.0
  0
SPLINE
  5
122
330
1F
100
AcDbEntity
  8
0
  6
Continuous
 62
     7
370
    25
100
AcDbSpline
210
0.0
220
0.0
230
1.0
 70
     8
 71
     3
 72
    22
 73
    18
 74
     0
 42
0.00000001
 43
0.00000001
 40
0.0
 40
0.0
 40
0.0
 40
0.0
 40
0.0650546900876875
 40
0.1374999952106535
 40
0.2108756503069349
 40
0.284215017950125
 40
0.3519974819681597
 40
0.4197857080318826
 40
0.4845564544376894
 40
0.549349997526843
 40
0.6179923742405886
 40
0.6866433325029274
 40
0.7601637367635001
 40
0.8336600112759408
 40
0.9058138407766012
 40
0.9779450878933499
 40
1.0
 40
1.0
 40
1.0
 40
1.0
 10
258.7115018319777
 20
-12.13883334757341
 30
0.0
 10
258.6994449546842
 20
-11.8722049590071
 30
0.0
 10
258.6739614642876
 20
-11.30865754833653
 30
0.0
 10
258.3918606221002
 20
-10.47316464310373
 30
0.0
 10
257.9149325328826
 20
-9.680514190041675
 30
0.0
 10
257.261352590156
 20
-9.013554663644396
 30
0.0
 10
256.4657763755549
 20
-8.506932116330509
 30
0.0
 10
255.5847315341525
 20
-8.160740425801723
 30
0.0
 10
254.6261198062647
 20
-7.966834089419357
 30
0.0
 10
253.6030187460866
 20
-7.902336718845961
 30
0.0
 10
252.5190425761189
 20
-7.965383042116078
 30
0.0
 10
251.3708384142613
 20
-8.14612973344729
 30
0.0
 10
250.2025786827919
 20
-8.435633045635598
 30
0.0
 10
249.0511967051812
 20
-8.814506468207611
 30
0.0
 10
247.9798498912718
 20
-9.253598924673822
 30
0.0
 10
247.2349279822527
 20
-9.61947185766769
 30
0.0
 10
246.8589874517068
 20
-9.832417462500526
 30
0.0
 10
246.7709560952221
 20
-9.882281440783645
 30
0.0
  0
LWPOLYLINE
  5
123
330
1F
100
AcDbEntity
  8
0
  6
Continuous
 62
     7
370
    25
100
AcDbPolyline
 90
       60
 70
   128
 43
0.0
 10
246.7709560952
 20
-26.6213680844
 10
247.325123315
 20
-26.3338299635
 10
247.9290942154
 20
-26.0819255697
 10
248.5760255648
 20
-25.8685090807
 10
249.2585873724
 20
-25.6959985904
 10
249.9690459403
 20
-25.5663487117
 10
250.699351489
 20
-25.4810284295
 10
251.4412293648
 20
-25.4410044567
 10
252.186273795
 20
-25.4467302809
 10
252.9260431284
 20
-25.4981410262
 10
253.6521554829
 20
-25.5946541884
 10
254.3563837153
 20
-25.7351762347
 10
255.0307486385
 20
-25.9181149942
 10
255.6676094284
 20
-26.1413976976
 10
256.2597501977
 20
-26.4024944628
 10
256.800461755
 20
-26.698446959
 10
257.2836176221
 20
-27.0259019262
 10
257.7037434502
 20
-27.3811491688
 10
258.0560790456
 20
-27.7601635936
 10
258.3366323054
 20
-28.1586508156
 10
258.5422244489
 20
-28.5720958155
 10
258.670526035
 20
-28.9958140961
 10
258.7200833555
 20
-29.4250047601
 10
258.6903349062
 20
-29.8548049057
 10
258.5816177488
 20
-30.2803447256
 10
258.3951636922
 20
-30.6968026835
 10
258.1330853354
 20
-31.0994601444
 10
257.7983521309
 20
-31.4837548384
 10
257.3947567396
 20
-31.845332553
 10
256.9268720585
 20
-32.1800964681
 10
256.3999994082
 20
-32.484253575
 10
255.8201084661
 20
-32.7543576521
 10
255.1937696285
 20
-32.9873483121
 10
254.5280795646
 20
-33.1805856779
 10
253.8305808088
 20
-33.3318802929
 10
253.1091763008
 20
-33.4395179287
 10
252.3720398419
 20
-33.5022790077
 10
251.6275234826
 20
-33.519452422
 10
250.8840628909
 20
-33.4908435898
 10
250.1500817724
 20
-33.4167766607
 10
249.4338964263
 20
-33.2980908425
 10
248.7436215189
 20
-33.1361308931
 10
248.0870781406
 20
-32.9327318833
 10
247.4717051902
 20
-32.6901984052
 10
246.9044750893
 20
-32.4112784601
 10
246.3918147814
 20
-32.0991323223
 10
245.9395329127
 20
-31.7572967324
 10
245.5527540176
 20
-31.3896448241
 10
245.2358604554
 20
-31.0003422405
 10
244.9924427568
 20
-30.5937999353
 10
244.8252589416
 20
-30.1746241955
 10
244.7362032693
 20
-29.7475644495
 10
244.7262847762
 20
-29.3174594551
 10
244.7956158428
 20
-28.8891824735
 10
244.9434109204
 20
-28.4675860542
 10
245.1679954317
 20
-28.057447053
 10
245.4668247444
 20
-27.6634125087
 10
245.8365130031
 20
-27.2899469901
 10
246.2728714921
 20
-26.9412820109
 10
246.7709560952
 20
-26.6213680844
  0
LWPOLYLINE
  5
124
330
1F
100
AcDbEntity
  8
0
  6
Continuous
 62
     7
370
    25
100
AcDbPolyline
 90
       51
 70
   128
 43
0.0
 10
248.1851696576
 20
-27.4377761963
 10
248.6561682953
 20
-27.1980625794
 10
249.1754964848
 20
-26.9943174985
 10
249.7349641104
 20
-26.8297541352
 10
250.3257480333
 20
-26.7069677521
 10
250.9385312383
 20
-26.6278947638
 10
251.5636497681
 20
-26.5937821986
 10
252.1912451301
 20
-26.6051680319
 10
252.8114197705
 20
-26.6618727024
 10
253.4143931648
 20
-26.7630019435
 10
253.9906560622
 20
-26.9069608868
 10
254.5311204528
 20
-27.0914792137
 10
255.0272628901
 20
-27.3136469598
 10
255.4712589117
 20
-27.5699604073
 10
255.8561064349
 20
-27.8563773398
 10
256.1757361845
 20
-28.1683807913
 10
256.4251074083
 20
-28.5010502809
 10
256.6002873732
 20
-28.8491394122
 10
256.6985133865
 20
-29.2071586114
 10
256.7182363654
 20
-29.569461702
 10
256.6591452665
 20
-29.9303349479
 10
256.5221719919
 20
-30.2840871623
 10
256.3094766919
 20
-30.6251394615
 10
256.0244136985
 20
-30.9481132471
 10
255.6714786254
 20
-31.2479150294
 10
255.2562374695
 20
-31.5198167554
 10
254.7852388318
 20
-31.7595303723
 10
254.2659106423
 20
-31.9632754531
 10
253.7064430167
 20
-32.1278388164
 10
253.1156590937
 20
-32.2506251995
 10
252.5028758887
 20
-32.3296981878
 10
251.8777573589
 20
-32.3638107531
 10
251.2501619969
 20
-32.3524249197
 10
250.6299873565
 20
-32.2957202492
 10
250.0270139623
 20
-32.1945910081
 10
249.4507510648
 20
-32.0506320648
 10
248.9102866743
 20
-31.866113738
 10
248.4141442369
 20
-31.6439459918
 10
247.9701482154
 20
-31.3876325444
 10
247.5853006922
 20
-31.1012156118
 10
247.2656709426
 20
-30.7892121603
 10
247.0162997188
 20
-30.4565426707
 10
246.8411197538
 20
-30.1084535395
 10
246.7428937405
 20
-29.7504343402
 10
246.7231707617
 20
-29.3881312496
 10
246.7822618606
 20
-29.0272580037
 10
246.9192351351
 20
-28.6735057893
 10
247.1319304351
 20
-28.3324534901
 10
247.4169934285
 20
-28.0094797045
 10
247.7699285016
 20
-27.7096779222
 10
248.1851696576
 20
-27.4377761963
  0
LWPOLYLINE
  5
125
330
1F
100
AcDbEntity
  8
0
  6
Continuous
 62
     1
370
    25
100
AcDbPolyline
 90
       54
 70
   128
 43
0.0
 10
240.1221845387
 20
32.6625555949
 10
240.1230581629
 20
32.6620511805
 10
240.752514218
 20
32.25325955
 10
241.3404478722
 20
31.7780188513
 10
241.884713819
 20
31.2380631861
 10
242.3833260913
 20
30.6353627941
 10
242.8344653068
 20
29.9721168637
 10
243.2364853074
 20
29.2507455072
 10
243.5879191659
 20
28.4738809306
 10
243.8874845381
 20
27.6443578285
 10
244.1340883425
 20
26.7652030407
 10
244.3268307486
 20
25.8396245076
 10
244.4650084602
 20
24.8709995651
 10
244.5481172818
 20
23.8628626203
 10
244.5758539584
 20
22.8188922558
 10
244.5481172818
 20
21.7428978062
 10
244.4650084602
 20
20.6388054585
 10
244.3268307486
 20
19.510643926
 10
244.1340883425
 20
18.3625297477
 10
243.8874845381
 20
17.1986522678
 10
243.5879191659
 20
16.023258349
 10
243.2364853074
 20
14.8406368762
 10
242.8344653068
 20
13.6551031069
 10
242.3833260913
 20
12.4709829254
 10
241.884713819
 20
11.2925970577
 10
241.3404478722
 20
10.124245306
 10
240.752514218
 20
8.9701908592
 10
240.1230581629
 20
7.8346447369
 10
239.4543765235
 20
6.7217504236
 10
238.7489092467
 20
5.63556875
 10
238.009230506
 20
4.5800630754
 10
237.2380393091
 20
3.5590848253
 10
236.4381496489
 20
2.5763594388
 10
235.612480236
 20
1.6354727741
 10
234.7640438487
 20
0.7398580247
 10
233.8959363392
 20
-0.1072168083
 10
233.0113253377
 20
-0.9026608407
 10
232.1134386939
 20
-1.6435715835
 10
231.2055526986
 20
-2.3272455338
 10
230.2909801296
 20
-2.9511880394
 10
229.3730581629
 20
-3.5131224018
 10
228.4551361961
 20
-4.0109981835
 10
227.5405636271
 20
-4.4429986897
 10
226.6326776319
 20
-4.8075475975
 10
225.734790988
 20
-5.1033147073
 10
224.8501799866
 20
-5.3292207972
 10
223.9820724771
 20
-5.4844415602
 10
223.1336360897
 20
-5.5684106126
 10
222.3079666768
 20
-5.5808215605
 10
221.5080770166
 20
-5.5216291177
 10
220.7368858197
 20
-5.391049271
 10
219.997207079
 20
-5.189558492
 10
219.2917398022
 20
-4.9178919988
 10
218.623931787
 20
-4.5775454874
  0
ENDSEC
  0
SECTION
  2
OBJECTS
  0
DICTIONARY
  5
C
330
0
100
AcDbDictionary
281
     1
  3
ACAD_GROUP
350
D
  3
ACAD_LAYOUT
350
1A
  3
ACAD_MLINESTYLE
350
17
  3
ACAD_PLOTSETTINGS
350
19
  3
ACAD_PLOTSTYLENAME
350
E
  3
ACAD_SCALELIST
350
47
  3
DWGPROPS
350
126
  0
DICTIONARY
  5
D
102
{ACAD_REACTORS
330
C
102
}
330
C
100
AcDbDictionary
281
     1
  0
DICTIONARY
  5
1A
102
{ACAD_REACTORS
330
C
102
}
330
C
100
AcDbDictionary
281
     1
  3
Layout1
350
1E
  3
Layout2
350
26
  3
Model
350
22
  0
DICTIONARY
  5
17
102
{ACAD_REACTORS
330
C
102
}
330
C
100
AcDbDictionary
281
     1
  3
Standard
350
18
  0
DICTIONARY
  5
19
102
{ACAD_REACTORS
330
C
102
}
330
C
100
AcDbDictionary
281
     1
  0
ACDBDICTIONARYWDFLT
  5
E
102
{ACAD_REACTORS
330
C
102
}
330
C
100
AcDbDictionary
281
     1
  3
Normal
350
F
100
AcDbDictionaryWithDefault
340
F
  0
DICTIONARY
  5
47
102
{ACAD_REACTORS
330
C
102
}
330
C
100
AcDbDictionary
281
     1
  3
A0
350
48
  3
A1
350
49
  3
A2
350
4A
  3
A3
350
4B
  3
A4
350
4C
  3
A5
350
4D
  3
A6
350
4E
  3
A7
350
4F
  3
A8
350
50
  3
A9
350
51
  3
B0
350
52
  3
B1
350
53
  3
B2
350
54
  3
B3
350
55
  3
B4
350
56
  3
B5
350
57
  3
B6
350
58
  3
B7
350
59
  3
B8
350
5A
  3
B9
350
5B
  3
C0
350
5C
  3
C1
350
5D
  3
C2
350
5E
  3
C3
350
5F
  3
C4
350
60
  3
C5
350
61
  3
C6
350
62
  3
C7
350
63
  3
C8
350
64
  3
C9
350
65
  3
D0
350
66
  3
D1
350
67
  3
D2
350
68
  0
XRECORD
  5
126
102
{ACAD_REACTORS
330
C
102
}
330
C
100
AcDbXrecord
280
     1
  1
DWGPROPS COOKIE
  2

  3

  4

  6

  7

  8
b.kav
  9

300
=
301
=
302
=
303
=
304
=
305
=
306
=
307
=
308
=
309
=
 40
0.0
 41
2459741.484666192
 42
2459741.484666377
  1

 90
        0
  0
LAYOUT
  5
1E
102
{ACAD_REACTORS
330
1A
102
}
330
1A
100
AcDbPlotSettings
  1

  2
none_device
  4

  6

 40
0.0
 41
0.0
 42
0.0
 43
0.0
 44
0.0
 45
0.0
 46
0.0
 47
0.0
 48
0.0
 49
0.0
140
0.0
141
0.0
142
1.0
143
1.0
 70
   688
 72
     1
 73
     0
 74
     5
  7

 75
    16
147
1.0
148
0.0
149
0.0
100
AcDbLayout
  1
Layout1
 70
     1
 71
     1
 10
0.0
 20
0.0
 11
420.0
 21
297.0
 12
0.0
 22
0.0
 32
0.0
 14
1.0000000000E+20
 24
1.0000000000E+20
 34
1.0000000000E+20
 15
-1.0000000000E+20
 25
-1.0000000000E+20
 35
-1.0000000000E+20
146
0.0
 13
0.0
 23
0.0
 33
0.0
 16
1.0
 26
0.0
 36
0.0
 17
0.0
 27
1.0
 37
0.0
 76
     0
330
1B
  0
LAYOUT
  5
26
102
{ACAD_REACTORS
330
1A
102
}
330
1A
100
AcDbPlotSettings
  1

  2
none_device
  4

  6

 40
0.0
 41
0.0
 42
0.0
 43
0.0
 44
0.0
 45
0.0
 46
0.0
 47
0.0
 48
0.0
 49
0.0
140
0.0
141
0.0
142
1.0
143
1.0
 70
   688
 72
     1
 73
     0
 74
     5
  7

 75
    16
147
1.0
148
0.0
149
0.0
100
AcDbLayout
  1
Layout2
 70
     1
 71
     2
 10
0.0
 20
0.0
 11
0.0
 21
0.0
 12
0.0
 22
0.0
 32
0.0
 14
0.0
 24
0.0
 34
0.0
 15
0.0
 25
0.0
 35
0.0
146
0.0
 13
0.0
 23
0.0
 33
0.0
 16
1.0
 26
0.0
 36
0.0
 17
0.0
 27
1.0
 37
0.0
 76
     0
330
23
  0
LAYOUT
  5
22
102
{ACAD_REACTORS
330
1A
102
}
330
1A
100
AcDbPlotSettings
  1

  2
none_device
  4
Letter_(8.50_x_11.00_Inches)
  6

 40
6.35
 41
6.35
 42
6.35000508
 43
6.35000508
 44
215.9
 45
279.4
 46
0.0
 47
0.0
 48
0.0
 49
0.0
140
0.0
141
0.0
142
1.0
143
1.0
 70
  1712
 72
     1
 73
     0
 74
     0
  7

 75
     0
147
1.0
148
0.0
149
0.0
100
AcDbLayout
  1
Model
 70
     1
 71
     0
 10
0.0
 20
0.0
 11
279.4
 21
215.9
 12
0.0
 22
0.0
 32
0.0
 14
0.0
 24
0.0
 34
0.0
 15
279.4
 25
215.9
 35
0.0
146
0.0
 13
0.0
 23
0.0
 33
0.0
 16
1.0
 26
0.0
 36
0.0
 17
0.0
 27
1.0
 37
0.0
 76
     0
330
1F
331
29
  0
MLINESTYLE
  5
18
102
{ACAD_REACTORS
330
17
102
}
330
17
100
AcDbMlineStyle
  2
Standard
 70
     0
  3

 62
   256
 51
90.0
 52
90.0
 71
     2
 49
0.5
 62
   256
  6
BYLAYER
 49
-0.5
 62
   256
  6
BYLAYER
  0
ACDBPLACEHOLDER
  5
F
102
{ACAD_REACTORS
330
E
102
}
330
E
  0
SCALE
  5
48
102
{ACAD_REACTORS
330
47
102
}
330
47
100
AcDbScale
 70
     0
300
1:1
140
1.0
141
1.0
290
     1
  0
SCALE
  5
49
102
{ACAD_REACTORS
330
47
102
}
330
47
100
AcDbScale
 70
     0
300
1:2
140
1.0
141
2.0
290
     0
  0
SCALE
  5
4A
102
{ACAD_REACTORS
330
47
102
}
330
47
100
AcDbScale
 70
     0
300
1:4
140
1.0
141
4.0
290
     0
  0
SCALE
  5
4B
102
{ACAD_REACTORS
330
47
102
}
330
47
100
AcDbScale
 70
     0
300
1:5
140
1.0
141
5.0
290
     0
  0
SCALE
  5
4C
102
{ACAD_REACTORS
330
47
102
}
330
47
100
AcDbScale
 70
     0
300
1:8
140
1.0
141
8.0
290
     0
  0
SCALE
  5
4D
102
{ACAD_REACTORS
330
47
102
}
330
47
100
AcDbScale
 70
     0
300
1:10
140
1.0
141
10.0
290
     0
  0
SCALE
  5
4E
102
{ACAD_REACTORS
330
47
102
}
330
47
100
AcDbScale
 70
     0
300
1:16
140
1.0
141
16.0
290
     0
  0
SCALE
  5
4F
102
{ACAD_REACTORS
330
47
102
}
330
47
100
AcDbScale
 70
     0
300
1:20
140
1.0
141
20.0
290
     0
  0
SCALE
  5
50
102
{ACAD_REACTORS
330
47
102
}
330
47
100
AcDbScale
 70
     0
300
1:30
140
1.0
141
30.0
290
     0
  0
SCALE
  5
51
102
{ACAD_REACTORS
330
47
102
}
330
47
100
AcDbScale
 70
     0
300
1:40
140
1.0
141
40.0
290
     0
  0
SCALE
  5
52
102
{ACAD_REACTORS
330
47
102
}
330
47
100
AcDbScale
 70
     0
300
1:50
140
1.0
141
50.0
290
     0
  0
SCALE
  5
53
102
{ACAD_REACTORS
330
47
102
}
330
47
100
AcDbScale
 70
     0
300
1:100
140
1.0
141
100.0
290
     0
  0
SCALE
  5
54
102
{ACAD_REACTORS
330
47
102
}
330
47
100
AcDbScale
 70
     0
300
2:1
140
2.0
141
1.0
290
     0
  0
SCALE
  5
55
102
{ACAD_REACTORS
330
47
102
}
330
47
100
AcDbScale
 70
     0
300
4:1
140
4.0
141
1.0
290
     0
  0
SCALE
  5
56
102
{ACAD_REACTORS
330
47
102
}
330
47
100
AcDbScale
 70
     0
300
8:1
140
8.0
141
1.0
290
     0
  0
SCALE
  5
57
102
{ACAD_REACTORS
330
47
102
}
330
47
100
AcDbScale
 70
     0
300
10:1
140
10.0
141
1.0
290
     0
  0
SCALE
  5
58
102
{ACAD_REACTORS
330
47
102
}
330
47
100
AcDbScale
 70
     0
300
100:1
140
100.0
141
1.0
290
     0
  0
SCALE
  5
59
102
{ACAD_REACTORS
330
47
102
}
330
47
100
AcDbScale
 70
     0
300
1/128" = 1'-0"
140
0.0078125
141
12.0
290
     0
  0
SCALE
  5
5A
102
{ACAD_REACTORS
330
47
102
}
330
47
100
AcDbScale
 70
     0
300
1/64" = 1'-0"
140
0.015625
141
12.0
290
     0
  0
SCALE
  5
5B
102
{ACAD_REACTORS
330
47
102
}
330
47
100
AcDbScale
 70
     0
300
1/32" = 1'-0"
140
0.03125
141
12.0
290
     0
  0
SCALE
  5
5C
102
{ACAD_REACTORS
330
47
102
}
330
47
100
AcDbScale
 70
     0
300
1/16" = 1'-0"
140
0.0625
141
12.0
290
     0
  0
SCALE
  5
5D
102
{ACAD_REACTORS
330
47
102
}
330
47
100
AcDbScale
 70
     0
300
3/32" = 1'-0"
140
0.09375
141
12.0
290
     0
  0
SCALE
  5
5E
102
{ACAD_REACTORS
330
47
102
}
330
47
100
AcDbScale
 70
     0
300
1/8" = 1'-0"
140
0.125
141
12.0
290
     0
  0
SCALE
  5
5F
102
{ACAD_REACTORS
330
47
102
}
330
47
100
AcDbScale
 70
     0
300
3/16" = 1'-0"
140
0.1875
141
12.0
290
     0
  0
SCALE
  5
60
102
{ACAD_REACTORS
330
47
102
}
330
47
100
AcDbScale
 70
     0
300
1/4" = 1'-0"
140
0.25
141
12.0
290
     0
  0
SCALE
  5
61
102
{ACAD_REACTORS
330
47
102
}
330
47
100
AcDbScale
 70
     0
300
3/8" = 1'-0"
140
0.375
141
12.0
290
     0
  0
SCALE
  5
62
102
{ACAD_REACTORS
330
47
102
}
330
47
100
AcDbScale
 70
     0
300
1/2" = 1'-0"
140
0.5
141
12.0
290
     0
  0
SCALE
  5
63
102
{ACAD_REACTORS
330
47
102
}
330
47
100
AcDbScale
 70
     0
300
3/4" = 1'-0"
140
0.75
141
12.0
290
     0
  0
SCALE
  5
64
102
{ACAD_REACTORS
330
47
102
}
330
47
100
AcDbScale
 70
     0
300
1" = 1'-0"
140
1.0
141
12.0
290
     0
  0
SCALE
  5
65
102
{ACAD_REACTORS
330
47
102
}
330
47
100
AcDbScale
 70
     0
300
1-1/2" = 1'-0"
140
1.5
141
12.0
290
     0
  0
SCALE
  5
66
102
{ACAD_REACTORS
330
47
102
}
330
47
100
AcDbScale
 70
     0
300
3" = 1'-0"
140
3.0
141
12.0
290
     0
  0
SCALE
  5
67
102
{ACAD_REACTORS
330
47
102
}
330
47
100
AcDbScale
 70
     0
300
6" = 1'-0"
140
6.0
141
12.0
290
     0
  0
SCALE
  5
68
102
{ACAD_REACTORS
330
47
102
}
330
47
100
AcDbScale
 70
     0
300
1'-0" = 1'-0"
140
12.0
141
12.0
290
     0
  0
ENDSEC
  0
EOF
